Song name
# A B C D E F G H I J K L M N O P Q R S T U V W X Y Z

Manowar - Return Of The Warlord tab

                            Return Of The Warlord                               


                                                                         Manowar
Rhythm Guitar 1



     Intro:                                                                
     H.           S S S S    H.           S S S S    H.           S S S S  
E||-----------------------|-----------------------|-----------------------|
B||-----------------------|-----------------------|-----------------------|
G||---------------7-------|---------------7-------|---------------7-------|
D||---------------5-------|---------------5-------|---------------5-------|
A||--2------------5---5-2-|--L------------5---5-2-|--L------------5---5-2-|
E||--0----------------3-0-|--L----------------3-0-|--L----------------3-0-|


  H         T  T  T  T  T  T T T T T T T T T T T    H.           S S S S  
-------------------------------------------------|-----------------------|
-------------------------------------------------|-----------------------|
-------------------------------------------------|---------------7-------|
-------------------------------------------------|---------------5-------|
--L----------------------------------------------|--2------------5---5-2-|
--L--------12-12-11-11-10-10-9-9-8-8-7-7-6-6-5-5-|--0----------------3-0-|


                                                  Drum Fill                   
                                                            \1/               
  H.           S S S S    H.           S S S S    S         E.  H.            
-----------------------|-----------------------|-----------------------------|
-----------------------|-----------------------|-----------------------------|
---------------7-------|---------------7-------|-----------------------------|
---------------5-------|---------------5-------|-----------------------------|
--L------------5---5-2-|--L------------5---5-2-|--L--------------------------|
--L----------------3-0-|--L----------------3-0-|--L---------0---L------------|


  Verse 1:                                                                   
  S        S S S S S S S S S S S S S S S    S S S S S S S S S S S S S S S S  
-----------------------------------------|----------------------------------|
-----------------------------------------|----------------------------------|
-----------------------------------------|----------------------------------|
-----------------------------------------|----------------------------------|
-----------------------------------------|----------------------------------|
--0--------0-0-0-0-0-0-0-0-0-0-0-0-0-0-0-|--0-0-0-0-0-0-0-0-0-0-0-0-0-0-0-0-|


  H        H           E  S S S S S S S S S S S S S  S  
--------------------|----------------------------------|
--------------------|----------------------------------|
--5--------4--------|----------------------------------|
--5--------4--------|-------------------------0---0h-2-|
--3--------2--------|--2----------------------0---0h-2-|
--3--------2--------|--0--0-0-0-0-0-0-0-0-0-0----------|


  S S S S S S S S S S S S S S S S    S S S S S S S S S S S S S S S S  
----------------------------------|----------------------------------|
----------------------------------|----------------------------------|
----------------------------------|----------------------------------|
--L-------------------------------|----------------------------------|
--L-------------------------------|----------------------------------|
----0-0-0-0-0-0-0-0-0-0-0-0-0-0-0-|--0-0-0-0-0-0-0-0-0-0-0-0-0-0-0-0-|


  H        H           E  S S S S S S S S S S S S S  S  
--------------------|----------------------------------|
--------------------|----------------------------------|
--5--------4--------|----------------------------------|
--5--------4--------|-------------------------0---0h-2-|
--3--------2--------|--2----------------------0---0h-2-|
--3--------2--------|--0--0-0-0-0-0-0-0-0-0-0----------|


  S S S S S S S S S S S S S S S S    S S S S S S S S S S S S S S S S  
----------------------------------|----------------------------------|
----------------------------------|----------------------------------|
----------------------------------|----------------------------------|
--L-------------------------------|----------------------------------|
--L-------------------------------|----------------------------------|
----0-0-0-0-0-0-0-0-0-0-0-0-0-0-0-|--0-0-0-0-0-0-0-0-0-0-0-0-0-0-0-0-|


  H        H           E  S S S S S S S S S S S S S  S  
--------------------|----------------------------------|
--------------------|----------------------------------|
--5--------4--------|----------------------------------|
--5--------4--------|-------------------------0---0h-2-|
--3--------2--------|--2----------------------0---0h-2-|
--3--------2--------|--0--0-0-0-0-0-0-0-0-0-0----------|


  S S S S S S S S S S S S S S S S    S S S S S S S S S S S S S S S S  
----------------------------------|----------------------------------|
----------------------------------|----------------------------------|
----------------------------------|----------------------------------|
--L-------------------------------|----------------------------------|
--L-------------------------------|----------------------------------|
----0-0-0-0-0-0-0-0-0-0-0-0-0-0-0-|--0-0-0-0-0-0-0-0-0-0-0-0-0-0-0-0-|


                                                         Chorus:           
  H        H           E  S S S S S S S S S S S S S S    W                 
--------------------|---------------------------------|-------------------|
--------------------|---------------------------------|-------------------|
--5--------4--------|---------------------------------|-------------------|
--5--------4--------|---------------------------------|-------------------|
--3--------2--------|--2------------------------------|--5----------------|
--3--------2--------|--0--0-0-0-0-0-0-0-0-0-0-0-0-0-0-|--3----------------|


  W                   W                   S S S S S S S S S S S S S S E   
-------------------|-------------------|---------------------------------|
-------------------|-------------------|---------------------------------|
-------------------|-------------------|---------------------------------|
--7----------------|--9----------------|--5-----5-----5-----5-----5-5-4--|
--5----------------|--7----------------|--3-3-3-3-3-3-3-3-3-3-3-3-3-3-2--|
-------------------|-------------------|---------------------------------|


  W                   H        H           H        S S S S Q     
-------------------|--------------------|------------------------|
-------------------|--------------------|------------------------|
-------------------|--------------------|------------------------|
-------------------|--4-----------------|--5--------7-7-7-7-7----|
--5----------------|--2--------2--------|--3--------5-5-5-5-5----|
--3----------------|-----------0--------|------------------------|


  Rhy. Fill:                                                 
  E          S S S S E  H           E  S  S S S E  H         
---------------------------------|--------------------------|
---------------------------------|--------------------------|
---------------------------------|--------------------------|
--9------------7-L---9--L--------|--9----12-L---9--L--------|
--7------------5-L---7--L--------|--7----10-L---7--L--------|
-------------0-----0-------------|-----0------0-------------|


  E  S S S S E  H           E  S  S S S E  Q.     S S  
-------------------------|----------------------------|
-------------------------|----------------------------|
-------------------------|----------------------------|
--9----7-L---9--L--------|--9----12-L---9--L------L-9-|
--7----5-L---7--L--------|--7----10-L---7--L------L-7-|
-----0-----0-------------|-----0------0---------------|


  Verse 2:                                                                 
  E        S S S S S S S S S S S S S S    S S S S S S S S S S S S S S S S  
---------------------------------------|----------------------------------|
---------------------------------------|----------------------------------|
---------------------------------------|----------------------------------|
--L------------------------------------|----------------------------------|
--L------------------------------------|----------------------------------|
-----------0-0-0-0-0-0-0-0-0-0-0-0-0-0-|--0-0-0-0-0-0-0-0-0-0-0-0-0-0-0-0-|


  H        H           E  S S S S S S S S S S S S S  S  
--------------------|----------------------------------|
--------------------|----------------------------------|
--5--------4--------|----------------------------------|
--5--------4--------|-------------------------0---0h-2-|
--3--------2--------|--2----------------------0---0h-2-|
--3--------2--------|--0--0-0-0-0-0-0-0-0-0-0----------|


  S S S S S S S S S S S S S S S S    S S S S S S S S S S S S S S S S  
----------------------------------|----------------------------------|
----------------------------------|----------------------------------|
----------------------------------|----------------------------------|
--L-------------------------------|----------------------------------|
--L-------------------------------|----------------------------------|
----0-0-0-0-0-0-0-0-0-0-0-0-0-0-0-|--0-0-0-0-0-0-0-0-0-0-0-0-0-0-0-0-|


  H        H           E  S S S S S S S S S S S S S  S  
--------------------|----------------------------------|
--------------------|----------------------------------|
--5--------4--------|----------------------------------|
--5--------4--------|-------------------------5---5p-2-|
--3--------2--------|--2----------------------5---5p-2-|
--3--------2--------|--0--0-0-0-0-0-0-0-0-0-0----------|


  S S S S S S S S S S S S S S S S    S S S S S S S S S S S S S S S S  
----------------------------------|----------------------------------|
----------------------------------|----------------------------------|
----------------------------------|----------------------------------|
--L-------------------------------|----------------------------------|
--L-------------------------------|----------------------------------|
----0-0-0-0-0-0-0-0-0-0-0-0-0-0-0-|--0-0-0-0-0-0-0-0-0-0-0-0-0-0-0-0-|


  H        H           E  S S S S S S S S S S S S S  S  
--------------------|----------------------------------|
--------------------|----------------------------------|
--5--------4--------|----------------------------------|
--5--------4--------|-------------------------0---0h-2-|
--3--------2--------|--2----------------------0---0h-2-|
--3--------2--------|--0--0-0-0-0-0-0-0-0-0-0----------|


  S S S S S S S S S S S S S S S S    S S S S S S S S S S S S S S S S  
----------------------------------|----------------------------------|
----------------------------------|----------------------------------|
----------------------------------|----------------------------------|
--L-------------------------------|----------------------------------|
--L-------------------------------|----------------------------------|
----0-0-0-0-0-0-0-0-0-0-0-0-0-0-0-|--0-0-0-0-0-0-0-0-0-0-0-0-0-0-0-0-|


                                                         Chorus:           
  H        H           E  S S S S S S S S S S S S S S    W                 
--------------------|---------------------------------|-------------------|
--------------------|---------------------------------|-------------------|
--5--------4--------|---------------------------------|-------------------|
--5--------4--------|---------------------------------|-------------------|
--3--------2--------|--2------------------------------|--5----------------|
--3--------2--------|--0--0-0-0-0-0-0-0-0-0-0-0-0-0-0-|--3----------------|


  W                   W                   S S S S S S S S S S S S S S E   
-------------------|-------------------|---------------------------------|
-------------------|-------------------|---------------------------------|
-------------------|-------------------|---------------------------------|
--7----------------|--9----------------|--5-----5-----5-----5-----5-5-4--|
--5----------------|--7----------------|--3-3-3-3-3-3-3-3-3-3-3-3-3-3-2--|
-------------------|-------------------|---------------------------------|


  W                   H        H           H        E.  S E  E   
-------------------|--------------------|-----------------------|
-------------------|--------------------|-----------------------|
-------------------|--------------------|-----------------------|
-------------------|--4-----------------|--5--------7---7-L--7--|
--5----------------|--2--------2--------|--3--------5---5-L--5--|
--3----------------|-----------0--------|-----------------------|


  Break:                                                    
  \1                                                        
  W                   W                   W                 
-------------------|-------------------|-------------------|
-------------------|-------------------|-------------------|
-------------------|-------------------|-------------------|
-------------------|-------------------|-------------------|
-------------------|-------------------|-------------------|
--0----------------|--L----------------|--L----------------|


  |-6-| |-6-| |-6-| |-6-| |--3--|  |--3--|                       
  S S S S S S S S S S S S E  E  E  E  E  E     W                 
--------------------------------------------|-------------------|
--------------------------------------------|-------------------|
--------------------------------------------|-------------------|
--------------------------------------------|-------------------|
--------------------------------------------|-------------------|
--x-x-x-x-x-x-x-x-x-x-x-x-x--x--x--x-----x--|-------------------|


  W                   W                   W                 
-------------------|-------------------|-------------------|
-------------------|-------------------|-------------------|
-------------------|-------------------|-------------------|
-------------------|-------------------|-------------------|
-------------------|-------------------|-------------------|
-------------------|-------------------|-------------------|


  Solo 1 Rhythm:                                              
  E.             S E  E  H           E.  S Q    E.  S E  E    
----------------------------------|--------------------------|
----------------------------------|--------------------------|
----------------------------------|--7---7-L----9---9-L--9\--|
--4--------------4-L--4--L--------|--7---7-L----9---9-L--9\--|
--4--------------4-L--4--L--------|--5---5-L----7---7-L--7\--|
--2--------------2-L--2--L--------|--------------------------|


  E.  S E  E  H           E.  S Q    E.  S E  E      E.  S E  E  H         
-----------------------|--------------------------|-----------------------|
-----------------------|--------------------------|-----------------------|
-----------------------|--7---7-L----9---9-L--9\--|-----------------------|
--4---4-L--4--L--------|--7---7-L----9---9-L--9\--|--4---4-L--4--L--------|
--4---4-L--4--L--------|--5---5-L----7---7-L--7\--|--4---4-L--4--L--------|
--2---2-L--2--L--------|--------------------------|--2---2-L--2--L--------|


  E.  S Q    E.  S E  E      E.  S E  E  H           E.  S Q    E.  S E  E    
--------------------------|-----------------------|--------------------------|
--------------------------|-----------------------|--------------------------|
--7---7-L----9---9-L--9\--|-----------------------|--7---7-L----9---9-L--9\--|
--7---7-L----9---9-L--9\--|--4---4-L--4--L--------|--7---7-L----9---9-L--9\--|
--5---5-L----7---7-L--7\--|--4---4-L--4--L--------|--5---5-L----7---7-L--7\--|
--------------------------|--2---2-L--2--L--------|--------------------------|


  Solo 2 Rhythm:                                               
  E.             S E  E  H           E.  S E  E  E.  S E  E    
----------------------------------|---------------------------|
----------------------------------|---------------------------|
----------------------------------|---------------------------|
--6--------------6-L--6--L--------|--2---2-L--2--4---4-L--4/--|
--6--------------6-L--6--L--------|--2---2-L--2--4---4-L--4/--|
--4--------------4-L--4--L--------|--0---0-L--0--2---2-L--2/--|


  E.  S E  E  H           E.  S E  E  E.  S E  E      E.  S E  E  H         
-----------------------|---------------------------|-----------------------|
-----------------------|---------------------------|-----------------------|
-----------------------|---------------------------|-----------------------|
--6---6-L--6--L--------|--2---2-L--2--4---4-L--4/--|--6---6-L--6--L--------|
--6---6-L--6--L--------|--2---2-L--2--4---4-L--4/--|--6---6-L--6--L--------|
--4---4-L--4--L--------|--0---0-L--0--2---2-L--2/--|--4---4-L--4--L--------|


                                                      Rhy. Fill:            
  E.  S E  E  E.  S E  E      E.  S E  E  H           E.         S  E  E    
---------------------------|-----------------------|-----------------------|
---------------------------|-----------------------|-----------------------|
---------------------------|-----------------------|-----------------------|
--2---2-L--2--4---4-L--4/--|--6---6-L--6--L--------|-----------------------|
--2---2-L--2--4---4-L--4/--|--6---6-L--6--L--------|--2~-------------------|
--0---0-L--0--2---2-L--2/--|--4---4-L--4--L--------|-------------5~-L--3~--|


  W                    W                 
--------------------|-------------------|
--------------------|-------------------|
--------------------|-------------------|
--------------------|-------------------|
--------------------|-------------------|
--0~----------------|--L----------------|


  Verse 3:                                                                   
  S        S S S S S S S S S S S S S S S    S S S S S S S S S S S S S S S S  
-----------------------------------------|----------------------------------|
-----------------------------------------|----------------------------------|
-----------------------------------------|----------------------------------|
-----------------------------------------|----------------------------------|
-----------------------------------------|----------------------------------|
--0--------0-0-0-0-0-0-0-0-0-0-0-0-0-0-0-|--0-0-0-0-0-0-0-0-0-0-0-0-0-0-0-0-|


  S S S S S S S S S S S S S S S S    S S S S S S S S S S S S S S S S  
----------------------------------|----------------------------------|
----------------------------------|----------------------------------|
----------------------------------|----------------------------------|
----------------------------------|----------------------------------|
----------------------------------|----------------------------------|
--0-0-0-0-0-0-0-0-0-0-0-0-0-0-0-0-|--0-0-0-0-0-0-0-0-0-0-0-0-0-0-0-0-|


  S S S S S S S S S S S S S S S S    S S S S S S S S S S S S S S S S  
----------------------------------|----------------------------------|
----------------------------------|----------------------------------|
----------------------------------|----------------------------------|
----------------------------------|----------------------------------|
----------------------------------|----------------------------------|
--0-0-0-0-0-0-0-0-0-0-0-0-0-0-0-0-|--0-0-0-0-0-0-0-0-0-0-0-0-0-0-0-0-|


                                     Drum Fill           Outro Chorus:     
  S S S S S S S S S S S S S S S S    W                   W                 
----------------------------------|-------------------|-------------------|
----------------------------------|-------------------|-------------------|
----------------------------------|-------------------|-------------------|
----------------------------------|-------------------|-------------------|
----------------------------------|-------------------|--5----------------|
--0-0-0-0-0-0-0-0-0-0-0-0-0-0-0-0-|-------------------|--3----------------|


  W                   W                   S S S S S S S S S S S S S S E   
-------------------|-------------------|---------------------------------|
-------------------|-------------------|---------------------------------|
-------------------|-------------------|---------------------------------|
--7----------------|--9----------------|--5-----5-----5-----5-----5-5-4--|
--5----------------|--7----------------|--3-3-3-3-3-3-3-3-3-3-3-3-3-3-2--|
-------------------|-------------------|---------------------------------|


  W                   H        H           H        H         
-------------------|--------------------|--------------------|
-------------------|--------------------|--------------------|
-------------------|--------------------|--5--------7--------|
-------------------|--4-----------------|--5--------7--------|
--5----------------|--2--------2--------|--3--------5--------|
--3----------------|-----------0--------|--3--------5--------|


  S S S S S S S S S S S S E  E     W                   W                 
--------------------------------|-------------------|-------------------|
--------------------------------|-------------------|-------------------|
--------------------------------|-------------------|-------------------|
--9-----7-----9-----7-----9--7--|-------------------|--7----------------|
--7-----5-----7-----5-----7--5--|--5----------------|--5----------------|
----0-0---0-0---0-0---0-0-------|--3----------------|-------------------|


  W                   S S S S S S S S S S S S S S E     W                 
-------------------|---------------------------------|-------------------|
-------------------|---------------------------------|-------------------|
-------------------|---------------------------------|-------------------|
--9----------------|--5-----5-----5-----5-----5-5-4--|-------------------|
--7----------------|--3-3-3-3-3-3-3-3-3-3-3-3-3-3-2--|--5----------------|
-------------------|---------------------------------|--3----------------|


  H        H           H        H           S S S S S S S S S S S S E  E   
--------------------|--------------------|--------------------------------|
--------------------|--------------------|--------------------------------|
--------------------|--5--------7--------|--------------------------------|
--4-----------------|--5--------7--------|--9-----7-----9-----7-----9--7--|
--2--------2--------|--3--------5--------|--7-----5-----7-----5-----7--5--|
-----------0--------|--3--------5--------|----0-0---0-0---0-0---0-0-------|


  W                   W                   W                 
-------------------|-------------------|-------------------|
-------------------|-------------------|-------------------|
-------------------|-------------------|-------------------|
-------------------|--7----------------|--9----------------|
--5----------------|--5----------------|--7----------------|
--3----------------|-------------------|-------------------|


  S S S S S S S S S S S S S S E     W                   H        H         
---------------------------------|-------------------|--------------------|
---------------------------------|-------------------|--------------------|
---------------------------------|-------------------|--------------------|
--5-----5-----5-----5-----5-5-4--|-------------------|--4-----------------|
--3-3-3-3-3-3-3-3-3-3-3-3-3-3-2--|--5----------------|--2--------2--------|
---------------------------------|--3----------------|-----------0--------|


                                                        Fade Out...       
  H        H           S S S S S S S S S S S S E  E     W                 
--------------------|--------------------------------|-------------------|
--------------------|--------------------------------|-------------------|
--5--------7--------|--------------------------------|-------------------|
--5--------7--------|--9-----7-----9-----7-----9--7--|-------------------|
--3--------5--------|--7-----5-----7-----5-----7--5--|--5----------------|
--3--------5--------|----0-0---0-0---0-0---0-0-------|--3----------------|


  W                   W                   S S S S S S S S S S S S S S E   
-------------------|-------------------|---------------------------------|
-------------------|-------------------|---------------------------------|
-------------------|-------------------|---------------------------------|
--7----------------|--9----------------|--5-----5-----5-----5-----5-5-4--|
--5----------------|--7----------------|--3-3-3-3-3-3-3-3-3-3-3-3-3-3-2--|
-------------------|-------------------|---------------------------------|


  W                   H        H           H        H         
-------------------|--------------------|--------------------|
-------------------|--------------------|--------------------|
-------------------|--------------------|--5--------7--------|
-------------------|--4-----------------|--5--------7--------|
--5----------------|--2--------2--------|--3--------5--------|
--3----------------|-----------0--------|--3--------5--------|


  S S S S S S S S S S S S E  E    
--------------------------------||
--------------------------------||
--------------------------------||
--9-----7-----9-----7-----9--7--||
--7-----5-----7-----5-----7--5--||
----0-0---0-0---0-0---0-0-------||




Duration Legend
---------------
W - whole
H - half
Q - quarter
E - 8th
S - 16th
T - 32nd
X - 64th
. - note dotted
|-n-|  - n-tuplets


Tablature Legend
----------------
L - tied note
x - dead note
g - grace note
(n) - ghost note
> - accentuded note
NH - natural harmonic
AH - artificial harmonic
TH - tapped harmonic
SH - semi harmonic
PH - pitch harmonic
h - hammer on
p - pull off
b - bend
br - bendRelease
pb - preBend
pbr - preBendRelease
brb - bendReleaseBend
\n/ - tremolo bar dip
\n - tremolo bar dive
-/n - tremolo bar Release up
/n\ - tremolo bar inverted dip
/n - tremolo bar return
-\n - tremolo bar Release down
S - shift slide
s - legato slide
/ -  slide into from below or out of upwards
\ -  slide into from above or out of downwards
~ - vibrato
W - wide vibrato
tr - trill
TP - tremolo picking
T - tapping
S - slap
P - pop
< - fade in
^ - brush up
v - brush down
Tap to rate this tab
# A B C D E F G H I J K L M N O P Q R S T U V W X Y Z