Song name
# A B C D E F G H I J K L M N O P Q R S T U V W X Y Z

Manowar - Metal Daze tab

Manowar: Metal Daze 

Standard Tuning(EADGBE)

/ & \=slide
h=hammer on
p=pull off
b=bend
DIVE=Use Whammy Bar
//=simile
~=vibrato
\  /=strong vibrato
 \/



Main Riff
|----------------------------------------------------------------------------|
|----------------------------------------------------------------------------|
|------------------------7-7-7-----------------------------------------------|
|-5h7-----7-7-7--5h7-----7-7-7-5h7-----7--7-7--------------------------------|
|-0---0-0-0-0-0--0---0-0-0-0-0-0---0-0-0--0-0--------------------------------|
|----------------------------------------------3-0-3-0-3/5-------------------|

Fill C - G - D


|----------------------------------------------------------------------------|
|----------------------------------------------------------------------------|
|------9-8-----------6-5-----------2-1------2--------------------------------|
|-7-10-----9-----4-7-----6-----0-3-----2----2--------------------------------|
|------------10------------7-------------3--0--------------------------------|
|----------------------------------------------------------------------------|

Chorus
|----------------------------------------------------------------------------|
|----------------------------------------------------------------------------|
|-2--4-5-----2---------------------------------------------------------------|
|-2--4-5--5--2---------------------------------------------------------------|
|-0--2-3--5--0---------------------------------------------------------------|
|---------3------------------------------------------------------------------|


Solo
|-15b(17)~~~-------------------------------------------------------|
|------------------------------------------------------------------|
|------------5_--------/~~~~~-12---11-12-11-11-9-11-11-11-11-9-9-9-|
|--------------\------/--------------------------------------------|
|---------------\____/---------------------------------------------|
|------------------------------------------------------------------|
		DIVE

|-----------------------------------------------|
|-----------------------------------8-10-~~~~~~-|
|-7h9p7h9-//-//-//-//-//-//-//-//---------------|
|-----------------------------------------------|
|-slowly press the Whammy Bar down--------------|
|-while you play this---------------------------|

|----------------------------------------------------------------|
|-10-10-10-10-10-10-13-10-10-10-10-10-10-12-10-10-10-10-10-10-13-|
|----------------------------------------------------------------|
|----------------------------------------------------------------|
|----------------------------------------------------------------|
|----------------------------------------------------------------|

|------------------------------------------------------------------------|
|-10-10-13-10-10-12-10-10-13-10-10-12-10-10-13-10-10-12-10-10-13-10-10-12|
|------------------------------------------------------------------------|
|------------------------------------------------------------------------|
|------------------------------------------------------------------------|
|------------------------------------------------------------------------|

|-15b(17)--------------------12-15-17-12-15-17-12-15-17-12-15-17-|
|---------13\--------------/-------------------------------------|
|------------\------------/--------------------------------------|
|-------------\----------/---------------------------------------|
|--------------\--------/----------------------------------------|
|---------------\___p0_/-----------------------------------------|

|-20-17-15-20-17-15-12h15p12h15-16b(17)\--/\--/~~~~-|
|-------------------------------16b(17)-\/--\/------|
|---------------------------------------------------|
|---------------------------------------------------|
|---------------------------------------------------|
|---------------------------------------------------|

|--------------------------------------------------------------------------------|
|--------------------------------------------------------------------------------|
|----------------------7p5h7p5---------7h9p7-7-5---------------------------------|
|--------10\--(5)--/-----------7p5---------------7-5-----------------------------|
|-15\0------\~~~~~/----------------7-5---------------5h7p5-----------------10----|
|----------------------------------------------------------8\---------0/12----p0-|
							     \
							      \____/
		    /\/\~~~/\~~~/\~~~~~~~~
|-10h12---12p10h12p10-//-//-//-//-//-//-//--------------------------------|
|-----------------------------------------------5-----5-----5-----5-------|
|------------------------------------------7b(8)-7b(8)-7b(8)-7b(8)-7b(8)--|
|-------------------------------------------------------------------------|
|-------------------------------------------------------------------------|
|-------------------------------------------------------------------------|

|-------------------------------------------------------------------------------15h17|
|------------------------------------------------------5-8-5-------------------------|
|-7p5h7p5----------------------------------5-7-5---5-7-------7-5---------------------|
|---------5h7p5h7p5----9b(10)-7-9-7-7--5-7-------7---------------7-5\----------------|
|-------------------7------------------------------------------------\--------/------|
|---------------------------------------------------------------------\------/-------|
								       \____/
Tap to rate this tab
 
# A B C D E F G H I J K L M N O P Q R S T U V W X Y Z