Song name
# A B C D E F G H I J K L M N O P Q R S T U V W X Y Z

Manowar - Fight For Freedom tab

-------------------------------------------------------------------------------
			     Manowar - Fight For Freedom (SOLO)
-------------------------------------------------------------------------------
Tabbed by: Andrew Lundy (Lundz)
Email: the_legendary_lundzii@hotmail.co.uk

I noticed the only version of this song was in guitar pro so i thought i'd be nice and 
this available to everyone.

This is my first tab, i couldn't find the solo anywhere so i had to slow the whole thing 
and pick out each individual note by ear, took me a long time to do so feedback is appreciated.

Timing is something you're going to have to figure out for yourself, just listen to the 
and get used to it. Shouldn't take long.

Anywhere here it is, it's a nice little solo and i had great fun tabbing it

BEST OF LUCK, Lundz.

Tuning: Standard EADGBE

e|-19^----------------------------------------------------8------------------|
B|------------------------------------------------5---8-5---8----------------|
G|----------------------------------------7---5-----5------------------------|
D|------------------------------------8-----8---5----------------------------|
A|-----------0---5------------5---8-----8------------------------------------|
E|-----1~~~3---8---8~~5-6-7-8---6---6----------------------------------------|

e|-/13-13-13-10-8-10-8~~~~~-----5-5^-5^-5^-5^~~-8-p6-6-h8-6-p5-8-12-12^------|
B|-/13-13-13-10-8-10-8~~~~~/6-8----------------------------------------------|
G|---------------------------------------------------------------------------|
D|---------------------------------------------------------------------------|
A|---------------------------------------------------------------------------|
E|---------------------------------------------------------------------------|

e|-\10-\8-\10-10-10-/8~~~-10-13-15-16^-17-17-16^-p15-p13-h15-p13-13----------|
B|---------------------------------------------------------------------------|
G|---------------------------------------------------------------------------|
D|---------------------------------------------------------------------------|
A|---------------------------------------------------------------------------|
E|---------------------------------------------------------------------------|

e|-13~~~13-p11----13~~~~13-p11----20~--------11----11-h13-13-13~~~~~---------|
B|-------------13--------------13-----21~-13----13--------13-13~~~~~---------|
G|---------------------------------------------------------------------------|
D|---------------------------------------------------------------------------|
A|---------------------------------------------------------------------------|
E|---------------------------------------------------------------------------|

There it is. Please write to me, I'd like to know if it was a good/bad job

good luck again, lundz


| ^  bend up then back down
| /  slide up
| \  slide down
| h  hammer-on
| p  pull-off
| ~  vibrato
| +  harmonic
| x  Mute note
======================================================
Tap to rate this tab
# A B C D E F G H I J K L M N O P Q R S T U V W X Y Z