Song name
# A B C D E F G H I J K L M N O P Q R S T U V W X Y Z

Manowar - Swords In The Wind tab

words In The Wind guitar tab
Album: Warriors Of The World
Song: Swords In The Wind
Author: jesse nyboe
Type: Guitar

You have to down tune 1 full step

Swords in the wind
Intro

  Em
e-----0-------0-------0-------0-----|
b------0-------0-------0-------0----|
g----0--0----0--0----0--0----0--0---|
d---2----2--2----2--2----2--2----2--|
a--2-------2-------2-------2--------|
e-0-------0-------0-------0---------|

I surrender my soul Odin hear my call
  Em      C       b       Em
------0-------0-------2-------0-----|
---------------------4---------0----|
-----0--------------4--------0--0---|
----2------2-------4--------2----2--|
---2------3-------2--------2--------|
--0-----------------------0---------|

One day I'll sit beside your throne In Valhalla's great hall
  Em      C       b       Em
------0-------0-------2-------0-----|
---------------------4---------0----|
-----0--------------4--------0--0---|
----2------2-------4--------2----2--|
---2------3-------2--------2--------|
--0-----------------------0---------|

Like so many before me I'll die with honor and pride
  Em      C       b       Em
------0-------0-------2-------0-----|
---------------------4---------0----|
-----0--------------4--------0--0---|
----2------2-------4--------2----2--|
---2------3-------2--------2--------|
--0-----------------------0---------|

The right of the warrior Forever to fight by your side
  Em      C       b       Em
------0-------0-------2-------0-----|
---------------------4---------0----|
-----0--------------4--------0--0---|
----2------2-------4--------2----2--|
---2------3-------2--------2--------|
--0-----------------------0---------|

Send a sign, raise the sail Wave a last goodbye
  Em      G       b       Em
------0-------2-------2-------0-----|
-------0-------2-----4-4-------0----|
-----0--0----0--0---4---4----0--0---|
----2----2--0----0-4-----4--2----2--|
---2-------2------2--------2--------|
--0-------3---------------0---------|

Destiny is calling Immortality be mine
  Em      G       b       b
------0-------2-------2-------2-----|
-------0-------2-----4-4-----4-4----|
-----0--0----0--0---4---4---4---4---|
----2----2--0----0-4-----4-4-----4--|
---2-------2------2-------2---------|
--0-------3-------------------------|

Call the witch to cast the runes Weave a magic spell
  Em      C       b       Em
------0-------0-------2-------0-----|
-------0-----1-1-----4-4-------0----|
-----0--0---0---0---4---4----0--0---|
----2----2-2-----2-4-----4--2----2--|
---2------3-------2--------2--------|
--0-----------------------0---------|

We who die in battle are born Not for heaven, not for hell
  Em      C       b       Em
------0-------0-------2-------0-----|
-------0-----1-1-----4-4-------0----|
-----0--0---0---0---4---4----0--0---|
----2----2-2-----2-4-----4--2----2--|
---2------3-------2--------2--------|
--0-----------------------0---------|


the power chords are....

e----------------------------------------------------------------------|
B----------------------------------------------------------------------|
G-----------5---4------------------------------------------------------|
D-----2----5---4-----5---4---2-----------------------------------------|
A----2----3---2-----5---4---2------------------------------------------|
E---0--------------3---2---0-------------------------------------------|

these are the power chords i think this is how you play them...
they may be in different variations and maybe a little different
chords but i think thats it..
i dont have the solo yet but in time....
Tap to rate this tab
# A B C D E F G H I J K L M N O P Q R S T U V W X Y Z