Song name
# A B C D E F G H I J K L M N O P Q R S T U V W X Y Z

Mansions - Dig Up The Dead tab

Finger every chord with your index on the G string, middle on the E and use your ring 
finger to mute the A.

Intro/verse
e |----x---------x---------x---------x----|
B |----x---------x---------x---------x----|
G |----5---------8---------7---------3----|
D |----0---------0---------0---------0----|
A |----x---------x---------x---------x----|
E |----5---------9---------7---------4----|

Chorus
e |----x---------x---------x---------x----|
B |----x---------x---------x---------x----|
G |----8---------7---------3---------5----|
D |----0---------0---------0---------0----|
A |----x---------x---------x---------x----|
E |----9---------7---------4---------5----|

Interlude
e |----x---------x---------x---------x---------x----|
B |----x---------x---------x---------x---------x----|
G |----8---------7---------1---------3---------5----|
D |----0---------0---------0---------0---------0----|
A |----x---------x---------x---------x---------x----|
E |----9---------7---------2---------4---------5----|

e |----x---------x---------x---------x----|
B |----x---------x---------x---------x----|
G |----8---------7---------5---------5----|
G |----0---------0---------0---------0----|
G |----x---------x---------x---------x----|
G |----9---------7---------6---------5----|

Final Chorus
e |----x---------x---------x---------x----|
B |----x---------x---------x---------x----|
G |----8---------7---------3---------5----|
D |----0---------0---------0---------0----|
A |----x---------x---------x---------x----|
E |----9---------7---------4---------5----|

e |----x---------x---------x---------x----x----x----x----x----|
B |----x---------x---------x---------x----x----x----x----x----|
G |----8---------7---------3---------5----3----5----3----2----|
D |----0---------0---------0---------0----0----0----0----0----|
A |----x---------x---------x---------x----x----x----x----x----|
E |----9---------7---------4---------5----4----5----4----2----|

That's it! Any questions, email me at edzirko@ymail.com
Tap to rate this tab
 
# A B C D E F G H I J K L M N O P Q R S T U V W X Y Z