Song name
# A B C D E F G H I J K L M N O P Q R S T U V W X Y Z

Mansions - Close That Door tab

Artist: Mansions
Album: Dig Up The Dead
Track: Close That Door
Tuning: Drop D (DADGBe)

NB  strumming not shown
   - if you want to play the acoustic live version (such as in
   http://www.youtube.com/watch?v=49GNttuAdB8) just put a capo at 2

Intro
e|------------------------|------------------------|
B|------------------------|------------------------|
G|-7----------------------|-2----------4-----------|
D|-0----------------------|-0----------0-----------| x4
A|-x----------------------|-x----------x-----------|
D|-9----------------------|-4----------5-----------|

Verse 1
e|------------------------|------------------------|
B|------------------------|------------------------|
G|-7----------------------|-2----------4-----------|
D|-0----------------------|-0----------0-----------| x7
A|-x----------------------|-x----------x-----------|
D|-9----------------------|-4----------5-----------|

e|------------------------|------------------------|
B|------------------------|------------------------|
G|-7----------------------|-6----------------------|
D|-0----------------------|-0----------------------|
A|-x----------------------|-x----------------------|
D|-9----------------------|-7----------------------|

Chorus 1
e|------------------------|------------------------|
B|------------------------|------------------------|
G|-4----------------------|-6----------------------|
D|-0----------------------|-0----------------------| 
A|-x----------------------|-x----------------------|
D|-5----------------------|-7----------------------|

e|------------------------|------------------------|
B|------------------------|------------------------|
G|-7----------------------|-6----------------------| All
D|-0----------------------|-0----------------------| x2
A|-x----------------------|-x----------------------|
D|-9----------------------|-7----------------------|

Post-chorus
e|------------------------|------------------------|
B|------------------------|------------------------|
G|-7----------------------|-2----------4-----------|
D|-0----------------------|-0----------0-----------| x2
A|-x----------------------|-x----------x-----------|
D|-9----------------------|-4----------5-----------|

Verse 2
e|------------------------|------------------------|
B|------------------------|------------------------|
G|-7----------------------|-2----------4-----------|
D|-0----------------------|-0----------0-----------| x3
A|-x----------------------|-x----------x-----------|
D|-9----------------------|-4----------5-----------|

e|------------------------|------------------------|
B|------------------------|------------------------|
G|-7----------------------|-6----------------------|
D|-0----------------------|-0----------------------|
A|-x----------------------|-x----------------------|
D|-9----------------------|-7----------------------|

Chorus 2
e|------------------------|------------------------|
B|------------------------|------------------------|
G|-4----------------------|-6----------------------|
D|-0----------------------|-0----------------------| 
A|-x----------------------|-x----------------------|
D|-5----------------------|-7----------------------|

e|------------------------|------------------------|
B|------------------------|------------------------|
G|-7----------------------|-6----------------------|
D|-0----------------------|-0----------------------|
A|-x----------------------|-x----------------------|
D|-9----------------------|-7----------------------|

e|------------------------|------------------------|
B|------------------------|------------------------|
G|-4----------------------|-6----------------------|
D|-0----------------------|-0----------------------| 
A|-x----------------------|-x----------------------|
D|-5----------------------|-7----------------------|

e|------------------------|------------------------|
B|------------------------|------------------------|
G|-7----------------------|-1----------------------|
D|-0----------------------|-0----------------------|
A|-x----------------------|-x----------------------|
D|-9----------------------|-2----------------------|

e|------------------------|------------------------|
B|------------------------|------------------------|
G|-1----------------------|-4----------------------|
D|-0----------------------|-0----------------------|
A|-x----------------------|-x----------------------|
D|-2----------------------|-5----------------------|

e|------------------------|
B|------------------------|
G|-4----------------------|
D|-0----------------------| 
A|-x----------------------|
D|-5----------------------|

Bridge
e|------------------------|------------------------|
B|------------------------|------------------------|
G|-7----------------------|-2----------4-----------|
D|-0----------------------|-0----------0-----------| x4
A|------------------------|------------------------|
D|------------------------|------------------------|

e|------------------------|------------------------|
B|------------------------|------------------------|
G|-4----------------------|-6----------7-----------|
D|-x----------------------|-x----------x-----------| x4 
A|-5----------------------|-7----------9-----------|
D|-5----------------------|-7----------9-----------|

e|------------------------|------------------------|
B|------------------------|------------------------|
G|-6----------------------|-6----------------------|
D|-x----------------------|-x----------------------| 
A|-7----------------------|-7----------------------|
D|-7----------------------|-7----------------------|

e|------------------------|------------------------|
B|------------------------|------------------------|
G|-4----------------------|-4----------------------|
D|-x----------------------|-x----------------------| 
A|-5----------------------|-5----------------------|
D|-5----------------------|-5----------------------|

Chorus 3
e|------------------------|------------------------|
B|------------------------|------------------------|
G|-4----------------------|-6----------------------|
D|-0----------------------|-0----------------------| 
A|-x----------------------|-x----------------------|
D|-5----------------------|-7----------------------|

e|------------------------|------------------------|
B|------------------------|------------------------|
G|-7----------------------|-6----------------------|
D|-0----------------------|-0----------------------|
A|-x----------------------|-x----------------------|
D|-9----------------------|-7----------------------|

e|------------------------|------------------------|
B|------------------------|------------------------|
G|-4----------------------|-6----------------------|
D|-0----------------------|-0----------------------| 
A|-x----------------------|-x----------------------|
D|-5----------------------|-7----------------------|

e|------------------------|------------------------|
B|------------------------|------------------------|
G|-7----------------------|-1----------------------|
D|-0----------------------|-0----------------------|
A|-x----------------------|-x----------------------|
D|-9----------------------|-2----------------------|

e|------------------------|------------------------|
B|------------------------|------------------------|
G|-1----------------------|-4----------------------|
D|-0----------------------|-0----------------------|
A|-x----------------------|-x----------------------|
D|-2----------------------|-5----------------------|

e|------------------------|
B|------------------------|
G|-4----------------------|
D|-0----------------------| 
A|-x----------------------|
D|-5----------------------|

Outro
e|------------------------|------------------------|
B|------------------------|------------------------|
G|-7----------------------|-2----------4-----------|
D|-0----------------------|-0----------0-----------| x2
A|-x----------------------|-x----------x-----------|
D|-9----------------------|-4----------5-----------|
Tap to rate this tab
# A B C D E F G H I J K L M N O P Q R S T U V W X Y Z