Song name
# A B C D E F G H I J K L M N O P Q R S T U V W X Y Z

Manson Marilyn - Dogma tab

----------------------------------------------------------------------------
			     Dogma - Marilyn Manson
----------------------------------------------------------------------------
Tabbed by: Scabtree82
Email: Scabtree82@yahoo.com

Tuning: Standard


e|-------------------------------------------------------------------------|
B|-------------------------------------------------------------------------|
G|--5----------------------------------------------------------------------|
D|--5----------------------------------------------------------------------|
A|--3----------------------------------------------------------------------|
E|-------------------------------------------------------------------------|

Let chord ring out.

e|-------------------------------------------------------------------------|
B|-------------------------------------------------------------------------|
G|-------------------------------------------------------------------------|
D|--10-10-10-10-10---10-10---10-10-10--10-10-10-10-------------------------|
A|--10-10-10-10-10---10-10---10-10-10--10-10-10-10-------------------------|
E|--8--8--8--8--8----8--8----8--8--8---8--8--8--8--------------------------|


e|-------------------------------------------------------------------------|
B|-------------------------------------------------------------------------|
G|-------------------------------------------------------------------------|
D|--13-13-13-13-13--13-13--13-13-13--13-13-13-13---------------------------|
A|--13-13-13-13-13--13-13--13-13-13--13-13-13-13---------------------------|
E|--11-11-11-11-11--11-11--11-11-11--11-11-11-11---------------------------|


e|-------------------------------------------------------------------------|
B|-------------------------------------------------------------------------|
G|-------------------------------------------------------------------------|
D|--12-12-12-12-12--12-12--12-12-12--12-12-12-12---------------------------|
A|--12-12-12-12-12--12-12--12-12-12--12-12-12-12---------------------------|
E|--10-10-10-10-10--10-10--10-10-10--10-10-10-10---------------------------|


e|-------------------------------------------------------------------------|
B|-------------------------------------------------------------------------|
G|-------------------------------------------------------------------------|
D|--10-10-10-10-10---10-10---10-10-10--10-10-10-10-------------------------|
A|--10-10-10-10-10---10-10---10-10-10--10-10-10-10-------------------------|
E|--8--8--8--8--8----8--8----8--8--8---8--8--8--8--------------------------|
____________________________________________________________________________

*Palm mute all of the next four parts:

e|-------------------------------------------------------------------------|
B|-------------------------------------------------------------------------|
G|-------------------------------------------------------------------------|
D|--10-10-10--10---10-10-10--10--------------------------------------------|
A|--10-10-10--10---10-10-10--10--------------------------------------------|
E|--8--8--8---8----8--8--8---8---------------------------------------------|


e|-------------------------------------------------------------------------|
B|-------------------------------------------------------------------------|
G|-------------------------------------------------------------------------|
D|--13-13-13--13---13-13-13--13--------------------------------------------|
A|--13-13-13--13---13-13-13--13--------------------------------------------|
E|--11-11-11--11---11-11-11--11--------------------------------------------|


e|-------------------------------------------------------------------------|
B|-------------------------------------------------------------------------|
G|-------------------------------------------------------------------------|
D|--12-12-12--12---12-12-12--12--------------------------------------------|
A|--12-12-12--12---12-12-12--12--------------------------------------------|
E|--10-10-10--10---10-10-10--10--------------------------------------------|


e|-------------------------------------------------------------------------|
B|-------------------------------------------------------------------------|
G|-------------------------------------------------------------------------|
D|--10-10-10--10---10-10-10--10--------------------------------------------|
A|--10-10-10--10---10-10-10--10--------------------------------------------|
E|--8--8--8---8----8--8--8---8---------------------------------------------|
____________________________________________________________________________

e|-------------------------------------------------------------------------|
B|-------------------------------------------------------------------------|
G|-------------------------------------------------------------------------|
D|-------------------------------------------------------------------------|
A|--3--6--3------3--6--3------3--6--3------3--6--3-------------------------|
E|-----------6------------6------------3------------6----------------------|

 "God is the thing that you favor, Evil is you sour flavor."

e|---------------------------------------------------------------------------|
B|---------------------------------------------------------------------------|
G|---------------------------------------------------------------------------|
D|--10---10---10---10---10----X-X--X-X--X-X----------------------------------|
A|--10---10---10---10---10----X-X--X-X--X-X----------------------------------|
E|--8----8----8----8----8-----X-X--X-X--X-X----------------------------------|

 "You cannot sedate, All the things you hate"

e|-------------------------------------------------------------------------|
B|-------------------------------------------------------------------------|
G|-------------------------------------------------------------------------|
D|--10---10-10-10-10-10-10-10-10-10-10-10-10-10-10-10----------------------|
A|--10---10-10-10-10-10-10-10-10-10-10-10-10-10-10-10----------------------|
E|--8----8--8--8--8--8--8--8--8--8--8--8--8--8--8--8-----------------------|

 *First chord is played open, The rest is palm muted.
___________________________________________________________________________

*Little solo part:
(Played with Wah Pedal for effect.)

e|-------------------------------------------------------------------------|
B|-------------------------------------------------------------------------|
G|-------------------------------------------------------------------------|
D|--8\10--10-10-10--10-10---8\10--10-10---13p10-10-10----------------------|
A|-------------------------------------------------------------------------|
E|-------------------------------------------------------------------------|


e|-------------------------------------------------------------------------|
B|-------------------------------------------------------------------------|
G|-------------------------------------------------------------------------|
D|--13-13-13-13-13--13-13---12\13-13-13--15p13-13-13-----------------------|
A|-------------------------------------------------------------------------|
E|-------------------------------------------------------------------------|


e|-------------------------------------------------------------------------|
B|-------------------------------------------------------------------------|
G|-------------------------------------------------------------------------|
D|--12-12-12-12-12--12-12---10\12-12-12--13p12-12-12-----------------------|
A|-------------------------------------------------------------------------|
E|-------------------------------------------------------------------------|


e|-------------------------------------------------------------------------|
B|-------------------------------------------------------------------------|
G|-------------------------------------------------------------------------|
D|--15-15-15-15-17-17-17-17---15--17--15--17-------------------------------|
A|-------------------------------------------------------------------------|
E|-------------------------------------------------------------------------|
____________________________________________________________________________

*Solo:

e|-------------------------------------------------------------------------|
B|-------------------------------------------------------------------------|
G|------------8------10^10--8h10-------------8------10^--------------------|
D|--8\10--10-----10----------------8\10--10-----10-------------------------|
A|-------------------------------------------------------------------------|
E|-------------------------------------------------------------------------|


e|-------------------------------------------------------------------------|
B|-------------------------------------------------------------------------|
G|------------8------10^10--8h10-----------------------------8^------------|
D|--8\10--10-----10----------------10p8-10p8-10p8--10--8\10----------------|
A|-------------------------------------------------------------------------|
E|-------------------------------------------------------------------------|
____________________________________________________________________________


| /  slide up
| \  slide down
| h  hammer-on
| p  pull-off
| ~  vibrato
| +  harmonic
| x  Mute note
===============================================================================
Tap to rate this tab
# A B C D E F G H I J K L M N O P Q R S T U V W X Y Z