Song name
# A B C D E F G H I J K L M N O P Q R S T U V W X Y Z

Manson Marilyn - Wrapped In Plastic tab

------------------------------------------------------------------------
		  Wrapped In Plastic - Marilyn Manson
------------------------------------------------------------------------

Tabbed by: Scabtree82
Email: Scabtree82@yahoo.com

Tuning: Standard


E |--------------------------------------------------------------------|
B |--------------------------------------------------------------------|
G |--------------------------------------------------------------------|
D |--------------------------------------------------------------------|
A |---------------------------------7--4-------------------------------|
E |--/9--0--2--2--5--2--0--2--0--2-------------------------------------|


E |--------------------------------------------------------------------|
B |--------------------------------------------------------------------|
G |--------------------------------------------------------------------|
D |--------------------------------------------------------------------|
A |--------------------------------------------------------------------|
E |--0--2--2--5--2--0--2--0--2--5--8-----------------------------------|


E |--------------------------------------------------------------------|
B |--------------------------------------------------------------------|
G |--------------------------------------------------------------------|
D |--------------------------------------------------------------------|
A |-----------------------------7--------------------------------------|
E |--0--2--2--5--2--0--2--0--2-----9-----------------------------------|


E |--------------------------------------------------------------------|
B |--------------------------------------------------------------------|
G |--------------------------------------------------------------------|
D |-----------------------------------4--------------------------------|
A |--------------------3--2--0--2--0-----------------------------------|
E |--0--2--2--5--2--2--------------------------------------------------|

Play this part again, but this time without the slide in the beginning.
Guitar repeats this part during the choruses: “Stay, Don’t want to go now. Stay.”


E |--------------------------------------------------------------------|
B |--------------------------------------------------------------------|
G |--------------------------------------------------------------------|
D |--6-----------------------------------------------------------------|
A |--7-----------------------------------------------------------------|
E |--0-----------------------------------------------------------------|

This chord is played and let ring out after the main riff, pre-chorus.

E |--------------------------------------------------------------------|
B |--5---5-------------------------------------------------------------|
G |--4---4-------------------------------------------------------------|
D |--6---6---X--X--X--X--X-X-X-----------------------------------------|
A |--7---7---X--X--X--X--X-X-X-----------------------------------------|
E |--0---0---X--X--X--X--X-X-X-----------------------------------------|

Play this part for the chorus: “Come into our home, Won’t you stay, I know the steak is
But it’s wrapped in plastic.“ Bass plays the rest.

E |------------+12+------------------+12+------------------------------|
B |--+7+-------------------+7+-----------------------------------------|
G |-------+7+-------------------+7+------------------------------------|
D |------------------+7+-----------------------------------------------|
A |--------------------------------------------------------------------|
E |--------------------------------------------------------------------|

This part is all played in harmonics. Let last note ring out a little before repeating.
this part during the part: “Thin and so white, Thin and so white, Daddy tells the
mommy’s sleeping at night, To wash away sin you must take off your skin, The righteous 
wears the yellowest grin.”

Main riff repeats.

Pre-chorus chord plays.

Chorus riff repeats till the end.

| /  slide up
| \  slide down
| h  hammer-on
| p  pull-off
| ~  vibrato
| +  harmonic
| x  Mute note
========================================================================
Tap to rate this tab
 
# A B C D E F G H I J K L M N O P Q R S T U V W X Y Z