Song name
# A B C D E F G H I J K L M N O P Q R S T U V W X Y Z

Manson Marilyn - Mobscene tab

Intro/Chorus:
|-----------------------------|
|-----------------------------|
|-----------------------------|
|-2-2-2-5-5-0-7--0-2-0--0-2-0-|
|-2-2-2-5-5-0-7--0-2-0--0-2-0-|
|-2-2-2-5-5-0-7--0-2-0--0-2-0-|

Pre-chorus:(bang! you want it...)
|-13-12--13-12--12-13--12-13-|
|----------------------------|
|----------------------------|
|----------------------------|
|----------------------------|
|----------------------------|

Post Chorus A:(you want commitment...)
|-----------------------------------------|
|-----------------------------------------|
|-----------------------------------------|
|-7-7-7-7-7-7-7-7-10-10-10-10-10-10-10-10-|
|-7-7-7-7-7-7-7-7-10-10-10-10-10-10-10-10-|
|-7-7-7-7-7-7-7-7-10-10-10-10-10-10-10-10-|
|con't:
|-----------------------------------------|
|-----------------------------------------|
|-----------------------------------------|
|-7-7-7-7-7-7-7-7-10-10-10-10-10-10-10-10-|
|-7-7-7-7-7-7-7-7-10-10-10-10-10-10-10-10-|
|-7-7-7-7-7-7-7-7-10-10-10-10-10-10-10-10-|
|con't:
|---------------------------------|
|---------------------------------|
|---------------------------------|
|-8-8-8-8-8-8-8-8-8-8-8-8-8-8-8-8-|
|-8-8-8-8-8-8-8-8-8-8-8-8-8-8-8-8-|
|-8-8-8-8-8-8-8-8-8-8-8-8-8-8-8-8-|

Post Chorus B:(be obscene be be obscene...)
|---------------------|
|---------------------|
|---------------------|
|-x-x-x-x-x-x-x-0-2-0-|
|-x-x-x-x-x-x-x-0-2-0-|
|-x-x-x-x-x-x-x-0-2-0-|
Tap to rate this tab
# A B C D E F G H I J K L M N O P Q R S T U V W X Y Z