Mantequilla - Ibog-ibog tab

Band/Artist:Mantequilla
Song:Ibog-Ibog
Tabbed by:L.G.T

Intro:
Gtr.1
   A              D                A             D
e|------------------------------------------------------------------|
B|------------------------------------------------------------------|
G|----------------7--7---------------------------7--7---------------|
D|-7--7-----------7--7-------------7--7----------7--7---------------|
A|-7--7-----------5--5-------------7--7----------5--5---------------|
E|-5--5----------------------------5--5-----------------------------|
Gtr.2
   A              D                A             D
e|------------------------------------------------------------------|
B|-------2-2-3-5~-------3p2-3p2---------2-2-3-5~-------3p2-3p2------|
G|------------------------------2~-----------------------------2~---|
D|------------------------------------------------------------------|
A|------------------------------------------------------------------|
E|------------------------------------------------------------------|
Gtr.1
   A              D                A             D
e|------------------------------------------------------------------|
B|------------------------------------------------------------------|
G|----------------7--7---------------------------7--7---------------|
D|-7--7-----------7--7-------------7--7----------7--7---------------|
A|-7--7-----------5--5-------------7--7----------5--5---------------|
E|-5--5----------------------------5--5-----------------------------|
Gtr.2
   A              D                A             D
e|------------------------------------------------------------------|
B|-------2-2-3-5~-------3p2-3p2---------2-2-3-5~-------3p2-3p2------|
G|------------------------------2~-----------------------------2~---|
D|------------------------------------------------------------------|
A|------------------------------------------------------------------|
E|------------------------------------------------------------------|
Gtr.1
   F#m              E                D / E  D / E
e|--------------------------------------------------|
B|--------------------------------------------------|
G|------------------9-9-9-9-9-9-9-9--7-/-9---7-/-9--|
D|-4-4-4-4-4-4-4-4--9-9-9-9-9-9-9-9--7-/-9---7-/-9--|
A|-4-4-4-4-4-4-4-4--7-7-7-7-7-7-7-7--5-/-7---5-/-7--|
E|-2-2-2-2-2-2-2-2----------------------------------|

Gtr.2
   F#m              E                D /E   D /E
e|-12--12--12--12---12--12--12--12----------------|
B|---10--10--10--10---10--10--10---10--9~~~~------|
G|------------------------------------------------|
D|------------------------------------------------|
A|------------------------------------------------|
E|------------------------------------------------|

Verse:1
   A                     D
Usa ka adlaw sa akong pagmata
     A                          D
Dili makahuwat muadto dayon sa eskwelaha
      C#m              D                 E
Kay maghuwat nimu na muagi ka sa akong atubangan

Intro:

Gtr.1
   A              D                A             D
e|------------------------------------------------------------------|
B|------------------------------------------------------------------|
G|----------------7--7---------------------------7--7---------------|
D|-7--7-----------7--7-------------7--7----------7--7---------------|
A|-7--7-----------5--5-------------7--7----------5--5---------------|
E|-5--5----------------------------5--5-----------------------------|
Gtr.2
   A              D                A             D
e|------------------------------------------------------------------|
B|-------2-2-3-5~-------3p2-3p2---------2-2-3-5~-------3p2-3p2------|
G|------------------------------2~-----------------------------2~---|
D|------------------------------------------------------------------|
A|------------------------------------------------------------------|
E|------------------------------------------------------------------|
Gtr.1

Verse:2
     A                  D
Kung makakita ko diha nimu
         A                D
Kompleto gyud ang akong adlaw
     C#m D             E
Kay ikaw man ang akong kusog

Refrain:
       C#m
Ug sa dihang niagi ka
  D
Bisag dili ta kaila
    C#m            D              E
Ang importante na ikaw akong makita

Chorus:
         A                C#m       D            E
Kung kahibaw lang ka nga ikaw ang babaye sa akong damgo
         A                 C#m     D             E
Kung kahibaw lang ka nga unsa ko kalipay kung makita tika
 F#m          E      D               E
Kung ako magul-anon ikaw dayon ang pangitaon

(repeat first intro)

Verse:3
      A                  D
Pagkagabii sa akong paghigda
      A                  D
Ikaw gihapon ang naa sa hunahuna
    C#m            D            E
Ug hinaot unta na gatapad tang duha


Refrain:
       C#m
Ug sa dihang niagi ka
  D
Bisag dili ta kaila
    C#m            D              E
Ang importante na ikaw akong makita

Chorus:
         A                C#m       D            E
Kung kahibaw lang ka nga ikaw ang babaye sa akong damgo
         A                 C#m     D             E
Kung kahibaw lang ka nga unsa ko kalipay kung makita tika
 F#m          E      D               E
Kung ako magul-anon ikaw dayon ang pangitaon

Adlib:A-C#m-D-E-;2x
      F#m-E-F#m-E-D-E-

Gtr.solo
    A    C#m      D              E                   A           C#m                 D
e|-----------------------------------------------12-12-12-----12-12-12---------------------|
B|-10~-10p9~-9-10-10/12-10-9-10~-12/14-12-10-12~---------10p9~--------10p9-10~-9-10-10/12--|
G|-----------------------------------------------------------------------------------------|
D|-----------------------------------------------------------------------------------------|
A|-----------------------------------------------------------------------------------------|
E|-----------------------------------------------------------------------------------------|
              E
  ---------------------------|
  -10-9-10~-12/14-12-10-12~--|
  ---------------------------|
  ---------------------------|
  ---------------------------|
  ---------------------------|
   F#m              E               F#m             E                D        E
e|-12--12--12---12--12--12--12--12--12--12--12--12--12--12--12--12-------------------------|
B|---10--10--10--10---10--10--10--10--10--10--10--10--10--10--10—-10-9~-9-9-10/12-10-9-10~-|
G|-----------------------------------------------------------------------------------------|
D|-----------------------------------------------------------------------------------------|
A|-----------------------------------------------------------------------------------------|
E|-----------------------------------------------------------------------------------------|

Refrain:
       C#m
Ug sa dihang niagi ka
  D
Bisag dili ta kaila
    C#m            D              E
Ang importante na ikaw akong makita

Chorus:
         A                C#m       D            E
Kung kahibaw lang ka nga ikaw ang babaye sa akong damgo
         A                 C#m     D             E
Kung kahibaw lang ka nga unsa ko kalipay kung makita tika
 F#m          E      D               E
Kung ako magul-anon ikaw dayon ang pangitaon

A  C#m
   Pangitaon…
A  C#m
   Pangitaon…
A  C#        A  A|C#m|D|E|D|C#m|A
   Pangitaon…

Gtr.2(play this during “pangitaon…”)
       A             C#m             A           C#m              A            C#m
e|-12-12-12------12-12-12--------12-12-12-----12-12-12--------12-12-12-----12-12-12---------|
B|---------10p9~---------10p9-10~--------10p9~--------10p9-10~--------10p9~--------10p9-10~-|
G|------------------------------------------------------------------------------------------|
D|------------------------------------------------------------------------------------------|
A|------------------------------------------------------------------------------------------|
E|------------------------------------------------------------------------------------------|
      A           A|C#m|D |E| D | C#m |A
e|-12-12-12---------9--10--12--10--9-------|
B|---------10p9~-10-------------------10~~-|
G|-----------------------------------------|
D|-----------------------------------------|
A|-----------------------------------------|
E|-----------------------------------------|
Tap to rate this tab
 
# A B C D E F G H I J K L M N O P Q R S T U V W X Y Z