Song name
# A B C D E F G H I J K L M N O P Q R S T U V W X Y Z

Mantequilla - Bolinaw tab

Band/Artist: Mantequilla
Song: Bolinaw
Tabbed by: L.G.T

Intro:G-D-C-; 2x

   G           D          C
e|-----3-0---------2-----------0--------0---------|
B|---------3-----2---3-1----1------1------1---1---|
G|---0---------0--------------0------0------0-----|
D|------------------------------------------------|
A|------------------------3-----------------------|
E|-3----------------------------------------------|

Verse 1:
G-D-C-  
Sa lungsod sa pinamungahan
G-D-C
Uban sa akong ginikanan
G-D-C-  
Paabot sa sakyanan
G-D-C-  
Padulong sa pantalan
G-D-C-  
Paabot sa sakayan
G-D-C-  
Kung naa bay nadakpan
G-D-C-  
Nilargo sa kan-anan
G-D-C-  
Manga-on tang tanan
G-D-C-  

Refrain:
Bm       C
Oh pastilan
Bm         C 
Ning kinbuhi
Bm          C   D
Oh pagkalami...

Chorus:
    G             D
Oh kinilaw na bolinaw
     C                 D
Ikaw ang akong gihuna-huna   
        G          D
Buntag udto og hapon
        C             D
Ikaw ang akong handumon
  Em      D          C            D
Suka sili og luy-a kinilaw’ng bolinaw
       Em   D    C
Oh asa kaa hahh ahh
       Em   D    C
Oh asa kaa hahh ahh

Verse 2:
Kutob sa makatilaw
Mga taw maamaw
Bolinaw pangdakpon
Bahala’g lisod dakpon

Na adik sa bolinaw
Ang nawng galatagaw
Parisan dayo’g tuba
Manimaho ang baba

Refrain:
Oh bolinaw
Sa kong kinbuhi
Oh pagkalami...

(Repeat chorus)

Adlib:
   Bm               C                Bm               C
e|---------------------------------------------------------------------|
B|-8888888888888888\6666666666666666/8888888888888888\6666666666666666-|
G|---------------------------------------------------------------------|
D|---------------------------------------------------------------------|
A|---------------------------------------------------------------------|
E|---------------------------------------------------------------------|
  Bm                               C 
e|-8-8-8-8-8-8-8-8-8-8-8-8-8-8-8-8/10-10-10-10-10-10/11-11-11-11-11-11-|
B|---------------------------------------------------------------------|
G|---------------------------------------------------------------------|
D|---------------------------------------------------------------------|
A|---------------------------------------------------------------------|
E|---------------------------------------------------------------------|
   Bm                              C                                
e|-8-8-8-8-8-8-8-8-8-8-8-8-8-8-8-8/10-10-10-10-10-10/11-11-11-11-11-11\|
B|---------------------------------------------------------------------|
G|---------------------------------------------------------------------|
D|---------------------------------------------------------------------|
A|---------------------------------------------------------------------|
E|---------------------------------------------------------------------|
          G        D        C        D             G        D       C
e|--------8--------8--------8-6--5-5-6-5-----------8--------8--------8-|
B|-6-6--6---6-6--6---6-6--6--------------6--6-6--6---6-6--6---6-6--6---|
G|---------------------------------------------------------------------|
D|---------------------------------------------------------------------|
A|---------------------------------------------------------------------|
E|---------------------------------------------------------------------|
          D              Bm                              C
e|-6--5-5-6-5-------------8-8-8-8-8-8-8-8-8-8-8-8-8-8-8-8/10-10-10-10--|
B|------------6-6-6-6-6-6----------------------------------------------|
G|---------------------------------------------------------------------|
D|---------------------------------------------------------------------|
A|---------------------------------------------------------------------|
E|---------------------------------------------------------------------|
                            Bm                              C
e|-10-10/11-11-11-11-11-11/-8-8-8-8-8-8-8-8-8-8-8-8-8-8-8-8/-10-10-10--|
B|---------------------------------------------------------------------|
G|---------------------------------------------------------------------|
D|---------------------------------------------------------------------|
A|---------------------------------------------------------------------|
E|---------------------------------------------------------------------|
                               D
e|-10-10-10/-11-11-11-11-11-11/-13-13-13-13-13-13------8------8--------|
B|---------------------------------------------------------------8b--6-|
G|-------------------------------------------------9-10---9-10---------|
D|---------------------------------------------------------------------|
A|---------------------------------------------------------------------|
E|---------------------------------------------------------------------|
  G      D        C      D                G       D            C
e|---8-5------8-------------8-----8-6-5------10-7-------12-10-8-8\-----|
B|-6-----8--6---5-6-6\--5-6---5-6-------6--8------10--8----------------|
G|---------------------------------------------------------------------|
D|---------------------------------------------------------------------|
A|---------------------------------------------------------------------|
E|---------------------------------------------------------------------|
    D                G      D        C      D                G       D        
e|-----8-----8-6-5------8-5------8-------------8-----8-6-5------10-7---|
B|-5-6---5-6-------6--6-----8--6---5-6-6\--5-6---5-6-------6--8------10|
G|---------------------------------------------------------------------|
D|---------------------------------------------------------------------|
A|---------------------------------------------------------------------|
E|---------------------------------------------------------------------|
          C
e|---12-10-8~----------------------------------------------------------|
B|-8-------------------------------------------------------------------|
G|---------------------------------------------------------------------|
D|---------------------------------------------------------------------|
A|---------------------------------------------------------------------|
E|---------------------------------------------------------------------|

   G               D
Oh kinilaw nga bolinaw
        C
Ikaw ang akong gihuna-huna...

(Repeat chorus)


Tap to rate this tab
# A B C D E F G H I J K L M N O P Q R S T U V W X Y Z