Song name
# A B C D E F G H I J K L M N O P Q R S T U V W X Y Z

Manyths - Black Vanilla Pudding tab

Artist: Manyths

e|-12-15-15-15---15-17-15-12---12-12-12-----------------------15-12-12------|
B|--------------------------------------12---15-15-15-15---17---------------|
G|--------------------------------------------------------------------------|
D|--------------------------------------------------------------------------|
A|--------------------------------------------------------------------------|
E|--------------------------------------------------------------------------|

e|-12-15-15-15---15-17-15-12---12-12-12-----------------------15-12-12------|
B|--------------------------------------12---15-15-15-15---17---------------|
G|--------------------------------------------------------------------------|
D|--------------------------------------------------------------------------|
A|--------------------------------------------------------------------------|
E|--------------------------------------------------------------------------|


e|-10-12-12-12---12-0-10-12---12-12-12-0---10-12-12-12---12-0---------------|
B|--------------------------------------------------------------------------|
G|--------------------------------------------------------------------------|
D|--------------------------------------------------------------------------|
A|--------------------------------------------------------------------------|
E|--------------------------------------------------------------------------|

e|-15-12-15-17-19-17---15-|
-|                        |
B|------------------------|
-|                        |
G|------------------------|
-|                        |
D|------------------------|
-|                        |
A|------------------------|
-|                        |
E|------------------------|
-|                        |
Tap to rate this tab
# A B C D E F G H I J K L M N O P Q R S T U V W X Y Z