Song name
# A B C D E F G H I J K L M N O P Q R S T U V W X Y Z

Maps And Atlases - Every Place Is A House tab

This is the proper way to play the intro part. And of course, two-handed tapping is 
Use your right hand to pull off the notes, and the left to hammer on. You'll have to play it 
for it to sound right.

==Intro

e--------------------------------------------------|
b-------------------5p1h3---------------------5p1--|
g------------5p0h2---------5p0h2-------------------|
d-----5p0h3------------------------5p0h3-----------|
a--------------------------------------------------|
E--------------------------------------------------|

==The part at 0:35
(Figure out the timing yourself.)

e---------------------5p1--------------------------|
b---------------------------5p1-5p1----------------|
g------------5p0h2---------------------------------|
d-----5p0h3----------------------------------------|
a--------------------------------------------------|
E--------------------------------------------------|

More of the tab to come.
Tap to rate this tab
# A B C D E F G H I J K L M N O P Q R S T U V W X Y Z