Song name
# A B C D E F G H I J K L M N O P Q R S T U V W X Y Z

Marble Sounds - Come Here tab

-------------------------------------------------------------------------------
			     Come Here - Marble Sounds
-------------------------------------------------------------------------------
Tabbed by: dylan
Email: dwillrett@hotmail.com

Tuning: standard


               this plays throught the whole song. enjoy:)

e|-----8------8----------8------8-----------5------5-----------3------3------|
B|---8------8------8---8------8-----8----5-------5------5----5------5--------|
G|-9------9------9---7------7-----7----5-------5------5----4------4----------|
D|---------------------------------------------------------------------------|
A|---------------------------------------------------------------------------|
E|---------------------------------------------------------------------------|

e|-----5------5------------7------7-----------5------5-----------7------7-----|
B|---6------6------6----8-------8------8----6------6------6----8------8------8|
G|-5------5------5----7-------7------7----5------5------5----7------7------7--|
D|----------------------------------------------------------------------------|
A|----------------------------------------------------------------------------|
E|----------------------------------------------------------------------------|


    im working on other songs from the album. but i am but one (untalented) man. so it 
take a while

************************************

| /   slide up
| \   slide down
| h   hammer-on
| p   pull-off
| ~   vibrato
| +   harmonic
| x   Mute note
| b   Bend
| pb  Pre-bend
| br  Bend release
| pbr Pre-bend release
| brb Bend release bend

************************************
Tap to rate this tab
 
# A B C D E F G H I J K L M N O P Q R S T U V W X Y Z