Song name
# A B C D E F G H I J K L M N O P Q R S T U V W X Y Z

Marble Sounds - Sky High tab

-------------------------------------------------------------------------------
                             SKY HIGH - Marble Sounds
-------------------------------------------------------------------------------
This is the version Pieter usually plays live


Tuning: Standard



Intro/verse:  (The studio version's verse is a variation of this one.)
e|-------------------------|--------------------------|-------------------------|-------------| 
B|-------3-----------3-----|-------3-----------3------|-------1-----------1-----|-------0-----|
G|-----0-----0-----0-----0-|-----0-----0-----0-----0--|-----0-----0-----0-----0-|-----0-----0-|
D|---------0-----------2---|---------2-----------0----|---------2-----------0---|---------0---|
A|-------------------------|-------------2------------|-3-----------0-----------|-2-----------|
E|-3-----------0-----------|-0------------------------|-------------------------|-------------|

e|--------------|
B|------0----1--|
G|-2------------|
D|--------------|
A|-----------0--|
E|-0----3-------|

e|-------------------------|--------------------------|-------------------------|-------------| 
B|-------3-----------3-----|-------3-----------3------|-------1-----------1-----|-------0-----|
G|-----0-----0-----0-----0-|-----0-----0-----0-----0--|-----0-----0-----0-----0-|-----0-----0-|
D|---------0-----------2---|---------2-----------0----|---------2-----------0---|---------0---|
A|-------------------------|-------------2------------|-3-----------0-----------|-2-----------|
E|-3-----------0-----------|-0------------------------|-------------------------|-------------|

e|--------------|
B|-------3------|
G|-----2-----2--|
D|-0-------0----|
A|--------------|
E|--------------|

There's always a pause after each of the bass notes.



Bridge:
   Sky - high   hundreds of - stories      into the - clouds
e|------------|----------------------|---|-------------------|
B|------------|----------------------|---|-------------------|
G|-7-----9----|-4-------------5------|-2-|-4----------5------|  x2
D|------------|----------------------|---|-------------------|
A|-5-----7----|-2-------------3------|-0-|-2----------3------|
E|------------|----------------------|---|-------------------|

Keyboard part:
e|------10---8-7---5-------2-0---------|
B|-10-8--------------8-7---------5-3---|
G|---------9-----7-------5-----5-------|  This is only the melody
D|-------------------------------------|  I don't know the key.
A|-------------------------------------|
E|-------------------------------------|

Then repeat verse till end


************************************

| /   slide up
| \   slide down
| h   hammer-on
| p   pull-off
| ~   vibrato
| +   harmonic
| x   Mute note
| b   Bend
| pb  Pre-bend
| br  Bend release
| pbr Pre-bend release
| brb Bend release bend

************************************
Tap to rate this tab
# A B C D E F G H I J K L M N O P Q R S T U V W X Y Z