Song name
# A B C D E F G H I J K L M N O P Q R S T U V W X Y Z

Marc Anthony - You Sang To Me tab

Tuning:

e|-----------------------------------------------------------|
B|-----------------------------------------------------------|
G|----------3-----3-------------3--------------3----------3--|
D|--------3---------3--------3--------------3-----3-----3----|
A|-----5----------------5----------------5-----------5-------|
E|--6-------------------------------6------------------------| Tuning:

e|-----------------------------------------------------------------------------------|
B|-----------------------------------------------------------------------------------|
G|----------3-----3-------------3--------------3----------3--------------------------|
D|--------3---------3--------3--------------3-----3-----3----------------------------|
A|-----5----------------5----------------5-----------5-------------------------------|
E|--6-------------------------------6------------------------------------------------|

e|-----------------------------------------------------------------------------------|
B|-----------------------------------------------------------------------------------|
G|---------------3-----------3---------------3------------3--------------------------|
D|-----------5------3-----3--------------3------3------3-----------------------------|
A|-------5-------------5--------------5-----------5----------------------------------|
E|--3-----------------------------3--------------------------------------------------|

e|-----------------------------------------------------------------------------------|
B|-----------------------------------------------------------------------------------|
G|---------------3-----------3---------------3------------3--------------------------|
D|-----------5------3-----3--------------3------3------3-----------------------------|
A|-------5-------------5--------------5-----------5----------------------------------|
E|--3-----------------------------3--------------------------------------------------|

e|-----------------------------------------------------------------------------------|
B|-----------------------------------------------------------------------------------|
G|----------3-----3-------------3--------------3----------3--------------------------|
D|--------3---------3--------3--------------3-----3-----3----------------------------|
A|-----5----------------5----------------5-----------5-------------------------------|
E|--6-------------------------------6------------------------------------------------|

e|-----------------------------------------------------------------------------------|
B|-----------------------------------------------------------------------------------|
G|---------------3-----------3---------------3------------3--------------------------|
D|-----------5------3-----3--------------3------3------3-----------------------------|
A|-------5-------------5--------------5-----------5----------------------------------|
E|--3-----------------------------3--------------------------------------------------|

e|-----------------------------------------------------------------------------------|
B|-----------------------------------------------------------------------------------|
G|---------------3-----------3--------------3-----------3----------------------------|
D|-----------3------3-----3--------------3-----3-----3-------------------------------|
A|-------6------------6---------------6----------6-----------------------------------|
E|--6-----------------------------6--------------------------------------------------|

e|-----------------------------------------------------------------------------------|
B|-----------------------------------------------------------------------------------|
G|---------------3-----------3---------------3------------3--------------------------|
D|-----------5------3-----3--------------3------3------3-----------------------------|
A|-------5-------------5--------------5-----------5----------------------------------|
E|--3-----------------------------3--------------------------------------------------|


e|-----------------------------------------------------------|
B|-----------------------------------------------------------|
G|----------3-----3-------------3--------------3----------3--|
D|--------3---------3--------3--------------3-----3-----3----|
A|-----5----------------5----------------5-----------5-------|
E|--6-------------------------------6------------------------| Tuning:

e|-----------------------------------------------------------------------------------|
B|-----------------------------------------------------------------------------------|
G|----------3-----3-------------3--------------3----------3--------------------------|
D|--------3---------3--------3--------------3-----3-----3----------------------------|
A|-----5----------------5----------------5-----------5-------------------------------|
E|--6-------------------------------6------------------------------------------------|

e|-----------------------------------------------------------------------------------|
B|-----------------------------------------------------------------------------------|
G|---------------3-----------3---------------3------------3--------------------------|
D|-----------5------3-----3--------------3------3------3-----------------------------|
A|-------5-------------5--------------5-----------5----------------------------------|
E|--3-----------------------------3--------------------------------------------------|

e|-----------------------------------------------------------------------------------|
B|-----------------------------------------------------------------------------------|
G|---------------3-----------3---------------3------------3--------------------------|
D|-----------5------3-----3--------------3------3------3-----------------------------|
A|-------5-------------5--------------5-----------5----------------------------------|
E|--3-----------------------------3--------------------------------------------------|

e|-----------------------------------------------------------------------------------|
B|-----------------------------------------------------------------------------------|
G|----------3-----3-------------3--------------3----------3--------------------------|
D|--------3---------3--------3--------------3-----3-----3----------------------------|
A|-----5----------------5----------------5-----------5-------------------------------|
E|--6-------------------------------6------------------------------------------------|

e|-----------------------------------------------------------------------------------|
B|-----------------------------------------------------------------------------------|
G|---------------3-----------3---------------3------------3--------------------------|
D|-----------5------3-----3--------------3------3------3-----------------------------|
A|-------5-------------5--------------5-----------5----------------------------------|
E|--3-----------------------------3--------------------------------------------------|

e|-----------------------------------------------------------------------------------|
B|-----------------------------------------------------------------------------------|
G|---------------3-----------3--------------3-----------3----------------------------|
D|-----------3------3-----3--------------3-----3-----3-------------------------------|
A|-------6------------6---------------6----------6-----------------------------------|
E|--6-----------------------------6--------------------------------------------------|
Tap to rate this tab
# A B C D E F G H I J K L M N O P Q R S T U V W X Y Z