Song name
# A B C D E F G H I J K L M N O P Q R S T U V W X Y Z

Marc Broussard - Wanderer tab

-------------------------------------------------------------------------------
			     THE WANDERER - Marc Broussard
-------------------------------------------------------------------------------
Tabbed by:  Shaun Kelley	
Email:  shaunkel94@yahoo.com
I'm tired of people tabbing this song horribly wrong.  So, here you go, trust me,
this is right.

Tuning: Standard w/ capo on 3  (all chords and tabs relative to capo)

Verse:

"Dance for me sweetheart..."
e|---------0----------------0----------0-------------------------------------|
B|------------3---------------3----------3----------3p2p0------------3-------|
G|------2--------2-------2------2----2-----2-----2--------2p0----------0-----|
D|---0-------------------------------------------------------------4-----4---|
A|---------------------------------------------0----------------2------------|
E|--------------------2------------3-----------------------------------------|

e|-------------------------------------3----|
B|--------0---0---------3------3--------3---| X4 (Strum 3X0233 2ce after 
G|------0---0--------2-------2-------2---2--| "that would suit me just fine")
D|----------------0-------------------------| Also, hold that chord during 2nd 
A|---4--------------------------------------| "I am known only as man" until 
E|-------------------------2-------3--------| chorus

Chorus:

	D	    Cadd9		G
e|----2-----------3-----------3------|
B|----3-----------3-----------3------|
G|----2-----------0-----------0------| repeat as necessary, listen to song for 
D|----0-----------2-----------0------| strumming patterns
A|----X-----------3-----------2------|
E|----X-----------X-----------3------|


This should be correct, email me if questions or comments.  Hope it helps.




| /  slide up
| \  slide down
| h  hammer-on
| p  pull-off
| ~  vibrato
| +  harmonic
| x  Mute note
===============================================================================
Tap to rate this tab
 
# A B C D E F G H I J K L M N O P Q R S T U V W X Y Z