Song name
# A B C D E F G H I J K L M N O P Q R S T U V W X Y Z

Marc Broussard - Home tab

****************************************************************************
                           Home - Marc Broussard
****************************************************************************


This is just one part of the lead guitar peace you hear throughout the song.
maybe using this bit you van workout the rest...

This is Played on top of a C-power Chord
The chords in the chorus are: 

| Eb | D C7 | C5 | [On top of the C5(powerchord) goes the lead guitar part]

   Cm  use this chord..
E| 3 | 
B| 4 |
G| 5 |
D| 5 |
A| 3 |
E| x |
(this is how it's played in the music video)
E|-----------|
B|--------4--|
G|----5-----5|
D|--5---5----|
A|3----------|
E|-----------|

***************************************************
Or it can be played like this:

   Cm  use this chord..
E| 10 | 
B| 10 |
G| 10 |
D| 12 |
A| 12 |
E| 10 |

E|------------------|    E|----------------------|
B|------------------|    B|----------------------|
G|------------10----| Or G|----------------------|
D|------12-------12-|    D|------12----12b(14)-12|  
A|---12----12-------|    A|---12----12-----------|
E|10----------------|    E|10--------------------|

***************************************************
Tap to rate this tab
# A B C D E F G H I J K L M N O P Q R S T U V W X Y Z