Song name
# A B C D E F G H I J K L M N O P Q R S T U V W X Y Z

Marc Broussard - Rocksteady chords

Highlighted       Show chord diagrams
-----------------------------------------------------------------------------
			     ROCKSTEADY - Marc Broussard
-----------------------------------------------------------------------------
Tabbed by: Chris Case
Email: zocase@gmail.com
Album: Carencro

Tuning:Standard

CHORDS USED

  C#maj9 C#2 C#m7 Cm7 Bm7 E F#m11 G#m7#5 Am9 C#m7* G#m  E Bm11 E6sus4 A2 
e|--4-----4---4----3---2--0---0------0----0---0-----0---0--0-----0----0--|
B|--4-----4---5----4---3--0---0------0----0---0-----0---0--0-----0----0--|
G|--5-----6---4----3---2--1---2------4----5---6-----4---9--7-----6----2--|
D|--6-----6---6----5---4--2---2------4----5---6-----6---9--7-----7----2--|
A|--4-----4---4----3---2--2---x------x----x---4-----6---7--x-----0----0--|
E|--4-----4---4----3---2--0---2------4----5----------------7-----0-------|

   Bsus4 B  A# 
e|---0-------------------------------------------------------------------|
B|---0----4--3-----------------------------------------------------------|
G|---4----4--3-----------------------------------------------------------|
D|---4----4--3-----------------------------------------------------------|
A|---2-------------------------------------------------------------------|
E|-----------------------------------------------------------------------|

Intro (Listen to see the pattern of back and forth for C#maj9 & C#2)
C#maj9 C#2 C#m7
                Oo oo oo oo oo
C#maj9 C#2 C#m7
(Same chords repeat through verses)

vERSE 1
I think I feel like sleepin in
I won't woke up 'til Friday night
C#maj9                  C#m7 Cm7 Bm7
The moment the weekend begins
            E     F#m11        G#m7#5
I'm packing up my ride and I'm leaving
         Am9
Headin straight towards the door

CHORUS
C#m7*  G#m      E
When I get there
               Bm11         E6sus4
You better be ready to rocksteady

C#m7*
Oh   Ooooo

VERSE 2 (same as first)
I think I feel like sleepin in
Last night was crazy outta sight
After my rest the fun begins
I'm packing up my ride and I'm leaving
Headed straight towards your door

CHORUS

A2        Bsus4 C#m7*     
First the song begins
A2        Bsus4  C#m7
You start movin' and  
A2    Bsus4    C#m7           B   A#  F#m11     
I get caught up in the rhythm of your hips
       A2
And I just can't wait to take this party home

************************************

| /   slide up
| \   slide down
| h   hammer-on
| p   pull-off
| ~   vibrato
| +   harmonic
| x   Mute note
| B   Bend
| pb  Pre-bend
| br  Bend release
| pbr Pre-bend release
| brb Bend release bend

************************************
Tap to rate this tab
 
# A B C D E F G H I J K L M N O P Q R S T U V W X Y Z