Song name
# A B C D E F G H I J K L M N O P Q R S T U V W X Y Z

Marc Broussard - Home tab

-------------------------------------------------------------------------------
                             HOME - Marc Broussard
-------------------------------------------------------------------------------
Tabbed by: Tony
email: capone1031@aol.com

This is how Marc plays it acoustically...enjoy.

Tuning: Standard

Verse:
e|-- 0-----------0-------------|
B|-- 0-----------0-------------|
G|-- 0-----------0-------------|
D|-- 2---0---0---2---5---2-----| Repeat, listen for the rhythm
A|-- 2---5---0---2-------------|
E|-- 0---0---0---0-------------|
     Em          Em

Chorus:
e|---3---2---1---0-----------0----------------------------------------------------|
B|---3---2---1---0-----------0----------------------------------------------------|
G|---4---3---2---0-----------0----------------------------------------------------|
D|---5---4---3---2---0---0---2---5---2--------------------------------------------|
A|---5---4---3---2---5---0---2----------------------------------------------------|
E|---3---2---1---0---0---0---0----------------------------------------------------|
     G   F#  F   Em          Em

The bridge is muted strumming and/or percussive slapping the guitar body.  Rinse, repeat.

Improvise to jam...have fun--this is a fantastic song!
Tap to rate this tab
# A B C D E F G H I J K L M N O P Q R S T U V W X Y Z