Song name
# A B C D E F G H I J K L M N O P Q R S T U V W X Y Z

Marc Cohn - Walking In Memphis tab

Help us improve GuitareTab! Take a short survey!
i learned this directly from the book. it might be right. i dont know. well it happens. 
it a lot and it gets pretty fun to play...

E---------------------------------------------------------------------------|
B--5-4-5-4-5-7-5-2-5-5-4-5-----9-5-2-0-5-2-0-7-5-5---2-2-5-5-5-5-5-4-5------|
G---------------------------------------------------------------------------|
D---------------------------------------------------------------------------|
A---------------------------------------------------------------------------|
E---------------------------------------------------------------------------|

E---------------------------------------------------------------------------|
B--9-7-7-5-5-0--2-5-5-5-5-4-5----9-7-7-5-9-7-7-5---2-5-5-9-7-5-5-4-5--------|
G---------------------------------------------------------------------------|
D---------------------------------------------------------------------------|
A---------------------------------------------------------------------------|
E---------------------------------------------------------------------------|

E---------------------------------------------------------------------------|
B--9-9-9-10-9-7-5----0-9-10-9-7-7-5-5-5-2-5-0---9-10-9-7-5------9-7-7-7-7-7-|
G-------------------------------------------------------------2-------------|
D---------------------------------------------------------------------------|
A---------------------------------------------------------------------------|
E---------------------------------------------------------------------------|

E---------------------------------------------------------------------------|
B-5-5-----2-5-5-4-5-0---0-9-7-7-5-5---2-5-5-9--7-5-7-5-5-0--2-5-5-5-5-4-5---|
G---------------------------------------------------------------------------|
D---------------------------------------------------------------------------|
A---------------------------------------------------------------------------|
E---------------------------------------------------------------------------|

E---------------------------------------------------------------------------|
B-2-5-9-7-7-7-7-5-5-0---2-5-9-7-7-2-5-----2-5-9-7-7-5-7-5--12-9-9-7-7-5-----|
G---------------------------------------4-----------------------------------|
D---------------------------------------------------------------------------|
A---------------------------------------------------------------------------|
E---------------------------------------------------------------------------|

E---------------------------------------------------------------------------|
B-9-7-7-7-5-5---9-9-9-9-10-9-7-5---2-2-9-10-9-7-7-5-5-5-2-5-0---9-10-9-7-5--|
G---------------------------------------------------------------------------|
D---------------------------------------------------------------------------|
A---------------------------------------------------------------------------|
E---------------------------------------------------------------------------|

E---------------------------------------------------------------------------|
B---0-9-7-7-7-7-7-7-5-5---------------2-5-8-7-7-7-5-0---2-5-9-10-9-7-7-5----|
G---------------------------------------------------------------------------|
D---------------------------------------------------------------------------|
A---------------------------------------------------------------------------|
E---------------------------------------------------------------------------|

E---------------------------------------------------------------------------|
B----2-5-5-9-7---0-10-9-7-5---2-5-8-7-7-5-9-7-9-12-----0-0-0-0-0-2-5-5------|
G--2------------------------------------------------------------------------|
D---------------------------------------------------------------------------|
A----------------------------------------------------------------------4----|
E---------------------------------------------------------------------------|

E---------------------------------------------------------------------------|
B--0-9-7-7-7-5-5-0---2-5-9-7-7-5-7-5-5----2-5-9-7-7-2-5-7-2-5-5-5-5-4-5-----|
G---------------------------------------------------------------------------|
D---------------------------------------------------------------------------|
A---------------------------------------------------------------------------|
E---------------------------------------------------------------------------|

E---------------------------------------------------------------------------|
B-12-9-9-7-9-0---2-5-9-7-7-2-5---2-5-9-9-9-10-9-7-7-5--5-7-2---12-9-9-7-5-5-|
G---------------------------------------------------------------------------|
D---------------------------------------------------------------------------|
A---------------------------------------------------------------------------|
E---------------------------------------------------------------------------|

E---------------------------------------------------------------------------|
B--9-10-9-7-5-----0-0-9-10-9-7-7-5-5-5-2-5-0---9-10-9-7-5-0-9-7-7-7-7-7-7-7-|
G---------------------------------------------------------------------------|
D---------------------------------------------------------------------------|
A---------------------------------------------------------------------------|
E---------------------------------------------------------------------------|

E----------------------------------------------------------------------------|
B-12-9-7-5-7-5---0-0-9-10-9-7-7-5-5-5-2-5-0---9-10-9-7-5---0-9-7-7-7-7-7-7-5-|
G----------------------------------------------------------------------------|
D----------------------------------------------------------------------------|
A----------------------------------------------------------------------------|
E----------------------------------------------------------------------------|

E---------------------------------------------------------------------------|
B-5---------5-4-5-4-5-7-5-2--5-4-5-5----9-5-2-0-5-2-0-7-5-5-2-2-5-5-5-5-5-4-|
G---------------------------------------------------------------------------|
D---------------------------------------------------------------------------|
A---------------------------------------------------------------------------|
E---------------------------------------------------------------------------|

E----------------------------------------------------------------|
B-5----9-5-2-0-5-2-0-7-5-5-2----2-2-5-5-5-5-5-4-------5----------|
G----------------------------------------------------------------|
D----------------------------------------------------------------|
A----------------------------------------------------------------|
E----------------------------------------------------------------|

thats what i got. hope you enjoy.
Related for Walking In Memphis tab