Marc Jordan - Fallen Man tab

Artist: Marc Jordan feat. Luke McMaster
Song: Fallen Man
Album: Crucifix in Dreamland
Tuning: Standard

http://www.marcjordan.com/

Verse 1

e |---6------------9------------8--------4--------|
B |-----7------------10-----------9--------6------|
G |-6------6--9/10-------10---8-----8--5------5---| (x3)
D |-----------------------------------------------|
A |-----------------------------------------------| 	
E |-----------------------------------------------|

e |---6------------9------------8--------8----8h9----|
B |-----7------------10-----------9--------9------9--|
G |-6------6--9/10-------10---8-----8--8------5------| 
D |--------------------------------------------------|
A |--------------------------------------------------| 	
E |--------------------------------------------------|


I read this book I read this book 
About a plane flying in the air 
I read a book about a man falling from the sky
I read this book I read this book 
About a hundred years ago
Three thousand pages long
Three thousand stories from

Chorus

e |--0----0----0---------|
B |--1----1----3---------|
G |--2----0----0---------|
D |--3----2----0---------|
A |--0----3----2---------| 	
E |--x----x----3---------|

The falling man 
Silent as the snow
The falling man

Verse 2

e |---6------------9------------8--------4--------|
B |-----7------------10-----------9--------6------|
G |-6------6--9/10-------10---8-----8--5------5---| (x4)
D |-----------------------------------------------|
A |-----------------------------------------------| 	
E |-----------------------------------------------|

e |---6------------9------------8--------8----8h9----|
B |-----7------------10-----------9--------9------9--|
G |-6------6--9/10-------10---8-----8--8------5------| 
D |--------------------------------------------------|
A |--------------------------------------------------| 	
E |--------------------------------------------------|

I felt the sun I felt the sun 
Shining on your face
I saw the moon I saw the moon 
Flaming out in space
I read this book I read a book 
About Orpheus and fire
Ten thousand years like one
Ten thousand shadows from

Chorus

e |--0----0----0---------|
B |--1----1----3---------|
G |--2----0----0---------|
D |--3----2----0---------|
A |--0----3----2---------| 	
E |--x----x----3---------|

The falling man 
Silent as the snow
The falling man
Bird and sky below
The earth above the sun 
Is a damper on the road
For The falling man


e |---------------------|
B |---------------------|
G |---8---6---5---3-----|
D |---------------------|
A |---------------------| 	
E |---------------------|

Bridge 

e |--0----0----0----6------------9-----------8-------|
B |--1----1----3------7------------10----------9-----|
G |--2----0----0--6------6----10------10---8-----8---|
D |--3----2----0-------------------------------------|
A |--0----3----2-------------------------------------| 	
E |--x----x----3-------------------------------------|

Say you’ll find me
Say you’re tie your hair up high 
And let me see me and dream of a 

Chorus

e |--0----0----0---------|
B |--1----1----3---------|
G |--2----0----0---------|
D |--3----2----0---------|
A |--0----3----2---------| 	
E |--x----x----3---------|

The falling man 
Silent as the snow
The falling man
Bird and sky below
The earth above the sun 
Is a damper on the road
For The falling man
Silent as the snow

Outro

e |----------0-----0---0-----|
B |------9-------------------|
G |--6/8---6---6-6------6----|
D |--------------------------|
A |--------------------------| 	
E |--------------------------|

Bird and sky below
Falling from the sky
Up above the sky
Tap to rate this tab
 
# A B C D E F G H I J K L M N O P Q R S T U V W X Y Z