Song name
# A B C D E F G H I J K L M N O P Q R S T U V W X Y Z

Marc Ribot - Variation 1 tab

                        Variation 1 - Marc Ribot

Tabbed by : Aoakaua
Email: goldendawn04@hotmail.com


E||--------------7----------|--------------------|
B||--10---------------10----|--------------------|
G||--------13---------------|--13----------------|
D||-------------------------|--------------------|
A||-------------------------|--------------------|
E||-------------------------|--------------------|



------------------------------|---------------------|-----------------------|
--10p---9---------------------|------------10----9--|--12---10------9-------|
-------------11p---9----------|---------------------|-----------------------|
--------------------------12--|------------9--------|-----------11----------|
------------------------------|---------------------|-----------------------|
------------------------------|---------------------|-----------------------|



-----------------------------|--------------------|-----------------------|
------10p---9----------------|--------------------|-----------------------|
-----------------11----9---7-|--------------------|------6-----7p--6------|
-----------------------------|--------11----------|---------9----------9--|
-----------------------------|--------------------|-----------------------|
-----------------------------|--------------------|-----------------------|



-------------------------|----------------------|---------------------------|
-------------------------|----------------------|---------------------------|
--------4-----6p-4-------|----------6-----7p-6--|----------4----2-----------|
-----------7--------7----|-------------9--------|--7--6--------------4---3--|
-------------------------|----------------------|---------------------------|
-------------------------|----------------------|---------------------------|



-------------------|------------5------------|--------------------7--|
--2----------------|-------------------------|------10---------------|
-------------------|--7----------------------|--------------13-------|
-------------------|-------5-----------------|-----------------------|
-------------------|-------------------------|-----------------------|
-------------------|-------------------------|-----------------------|



----------------------|----------------------------|
------10--------------|------10--------------------|
-----------13---------|------------13----11--------|
----------------------|----------------------------|
----------------------|----------------------------|
----------------------|----------------------------|



-----------------------------|---------------------|--------------------|
--10-------------------------|---------------------|--------------------|
--------13----9--------------|----------6-----7----|--6-----------------|
-----------------------12----|-------------9-------|--------------------|
-----------------------------|---------------------|--------------------|
-----------------------------|---------------------|-------9------------|



---------5-----------|----3---------------||
--3------0------1----|-----------2--------||
--0------------------|--------------------||
----------------3----|-----------4--------||
---------------------|--------------------||
---------------------|--------------------||

************************************

| /   slide up
| \   slide down
| h   hammer-on
| p   pull-off
| ~   vibrato
| +   harmonic
| x   Mute note
| b   Bend
| pb  Pre-bend
| br  Bend release
| pbr Pre-bend release
| brb Bend release bend

************************************
Tap to rate this tab
# A B C D E F G H I J K L M N O P Q R S T U V W X Y Z