Marc Ribots Ceramic Dog - Midost tab

Intro and main riff in Midost by Ceramic Dog
http://www.marcribot.com/disco.jsp#

e|---------------------|----------------------|----------|
B|---------------------|----------------------|----------|
G|---------------------|----------------------|----------|
D|---------------------|----------------------|----------|
A|----------0-2p0------|-----0-2p0-3-2-0------|----------|
E|00--0-2-3-------3-22-|-2-3-------------3-22-|-2-3-2-00-|  +variations

p - pull-off

moved to A on 6th string:
e|---------------------|----------------------|----------|
B|---------------------|----------------------|----------|
G|---------------------|----------------------|----------|
D|---------------------|----------------------|----------|
A|----------5-7p5------|-----5-7p5-8-7-5------|----------|
E|55--5-7-8-------8-77-|-7-8-------------8-77-|-7-8-7-55-|

Tabed by Arek Ignaciuk
www.pixelmower.com
Tap to rate this tab
 
# A B C D E F G H I J K L M N O P Q R S T U V W X Y Z