Song name
# A B C D E F G H I J K L M N O P Q R S T U V W X Y Z

Marc Seal - Yes tab

Help us improve GuitareTab! Take a short survey!
---------------------------------------|
---------------------------------------|
--------------2------------------------|          x3
--2-2-2-2---5-2---2-2-2-2---7----------|
--2-2-2-2---3-0---2-2-2-2---5----------|
--0-0-0-0---------0-0-0-0--------------|


---------------------------------------|
---------------------------------------|
--------------2------------------------|
--2-2-2-2---3-2------------------------|
--2-2-2-2---5-0----5-0-0-5-0-0-5-------|
--0-0-0-0----------3-0-0-3-0-0-3-------|

--S-12-12-12---15-b-15--15-p-12--------------14-17-17-b-17-14--------|
--------------------------------15--15-b-15-------------------17-----|
---------------------------------------------------------------------|
---------------------------------------------------------------------|
---------------------------------------------------------------------|
---------------------------------------------------------------------|


--17-14-----------------------------17-14-----------14---------------|
--------17-14-17-17b-17b-17b-14-17--------17-14-17-----14-17---------|
---------------------------------------------------------------------|
---------------------------------------------------------------------|
---------------------------------------------------------------------|
---------------------------------------------------------------------|


---------------------------------------------------------------------|
--S-10--10-10-13-11-10-10-10-h-11-p-10-------------------------------|
---------------------------------------12----------------------------|
---------------------------------------------------------------------|
---------------------------------------------------------------------|
---------------------------------------------------------------------|


h= hammer on
s= slide
p= pull off
b= bend
Related for Yes tab