Song name
# A B C D E F G H I J K L M N O P Q R S T U V W X Y Z

Marc Seal - Strat Boogie tab

Well so i saw the attempt of the strat boogie into on ultimate guitar and got sick of it
an incomplete intro so i tabbed it out,
fairly easy to play just listen along to the song and try to play along, theres optional
in the begginning of the intro but if you
want to bend it go ahead.
The song is played by mark tuned to D but since i know jack squat about tuning i think
fairly optional.

This is played by hammer on pull offs (h= hammer on p= pull off)
|-----------------------------------------------------------------------------------|
|-----------------------------------------------------------------------------------|
|-----------------------------------------------------------------------------------|
|-----------------------------------------------------------------------------------|
|---------h5-p0-h3-p0--------------3---------------h5-p0-h3-p0----------------------|
|-0-h3-p0-------------h3-p0-5-6-7----5----0-h3-p0--------------h3-p0--5-6-7-3-------|


|---------------------------------------------------------------4-3-1---------------|
|---------------------------------------------------------------------3-------------|
|-----------------------------------------------------------------------------------|
|-----------------------------------------------------------------------------------|
|---------h5-p0-h3-p0-------------3----3--5-4-3----3--------------------------------|
|-0-h3-p0-------------h3-p0-5-6-7----5-----------5---5-3-0-0------------------------|


|-6-6b7-------8b9-8-6--8-6S8--------15-----15---------------------------------------|
|-------7-5-7----------------7--/14----14-------------------------------------------|
|-----------------------------------------------------------------------------------|
|-----------------------------------------------------------------------------------|
|-----------------------------------------------------------------------------------|
|-----------------------------------------------------------------------------------|

				Sliding from 7 to 2 to 10 here is an optional thing that Marc does
				and it sounds pretty good when you get the hang of it
|-6-6b7-----------------------------------10----------10-10-------------------------|
|-------7-5-7-5---------------------------------------------------------------------|
|----------------7-6-5----5-----7\-2-/10----7\-2-/10--------------------------------|
|-----------------------8---8-5-----------------------------------------------------|
|-----------------------------------------------------------------------------------|
|-----------------------------------------------------------------------------------|


|-6-6b7-------8b9-8-6--8-6S8-------6------5-4-3-------------------------------------|
|-------7-5-7----------------7-5-7---7----------6-3-6-3---3-------------------------|
|-------------------------------------------------------4---------------------------|
|-----------------------------------------------------------------------------------|
|-----------------------------------------------------------------------------------|
|-----------------------------------------------------------------------------------|

		   Try to alternative pick this part with your 1st, 3rd and 4th finger.
|------------------13-12-10-------------------13-12-10------------------------------|
|---------------------------13-12-10-------------------13-12-10------------12--10---|
|------------------------------------13-12-10-------------------13-12-10---12--10---|
|-------------3---------------------------------------------------------------------|
|-------0-3-5---5-------------------------------------------------------------------|
|-0-3-5-----------------------------------------------------------------------------|

After this i would guess the "real song" starts, and its heavy distortioned....i think,
and such arent my forté.

I could try tabbing out the rest, but this is in my opinion the good part of the song.
Don't get me wrong Marc Seal is my favorite guitarrist, his songs may be good but its
really what i listen too, still i play em...

Don't hesitate to mail opinions and such, maybe corrections, hatemail etc.....i could
have a good laugh :-) Pharaphet@hotmail.com

Tabbing is a B.....by notepad, if anyone knows of any cheap or possibly free program to
tabbing easier let me know^^
//Pharaphet
Tap to rate this tab
# A B C D E F G H I J K L M N O P Q R S T U V W X Y Z