Song name
# A B C D E F G H I J K L M N O P Q R S T U V W X Y Z

Marc Streitenfeld - Into The Fray tab

tuning:d a d g b e

Acoustic guitar:

-------------------------------------------------------------------------------|
-------------------------------------------------------------------------------|
-----------------------------------------------------------3-------------------|
----3-----3--------3------3---3----3-----3--------3------3---3-----3---3-------|
--5---5-----5----5---5------5----5---5-----5----5---5------------3---3---3-----|
--0------------------------------8-------------------------------3-------------|


-------------------------------------------------------------------------------|
-------------------------------------------------------------------------------|
--------------2----------------------------------------------------------------|
---3-------3-----3--------2---2------2------2---2------------------------------|
-3---3---3-------------3----3---3--3---3------3------5-------------------------|
-----------------------0-----------------------------0-------------------------|




Electric guitar:

-------------------------------------------------------------------------------|
-------------------------------------------------------------------------------|
--7-7-7-7----------------------------------------------------------7-----------|
--7-7-7-7---4x----8-8-8-8---4x----3-3-3-3---4x----2-2-2-2---4x-----7-----------|
--5-5-5-5---------8-8-8-8---------3-3-3-3---------3-3-3-3-------0--5-----------|
--0-0-0-0---------8-8-8-8---------3-3-3-3---------0-0-0-0-------0--0-----------|
Tap to rate this tab
# A B C D E F G H I J K L M N O P Q R S T U V W X Y Z