Song name
# A B C D E F G H I J K L M N O P Q R S T U V W X Y Z

Marcelo Ribeiro - Romantic Ballad tab

artist:Marcelo Ribeiro 
arranged by:yakuza1o
tuning:standar

There might be some mistakes but it sounds the same as Marcelo....!!Enjoy







   T     T   T    T   T    T  T    T  T        T    T  T    T  T    T  T    T                
|------------------------------------------------------------------------------------------|  
|--10p0--5--12p0--7--10p0--3--9p0--7--9p5p3p4--7p0--5--9p0--4--7p0--5--9p0--5--7p5p4p0-----|   
|----------------------------------------------------------------------------------------6-|
|------------------------------------------------------------------------------------------|
|------------------------------------------------------------------------------------------|
|------------------------------------------------------------------------------------------|



                                   st              T      T   T      T   T
|------------------------------------------------------------------------------------------|
|------------------------12b[14]--[14]r12p10---12--22p12--14--21p12--14--19p14p12----------|
|-----6--8--9---9-9------------------------------------------------------------------------|
|-/9---------------------------------------------------------------------------------------|
|------------------------------------------------------------------------------------------|
|------------------------------------------------------------------------------------------|





   T     T   T    T   T    T  T    T  T        T    T  T    T  T    T  T    T
|------------------------------------------------------------------------------------------|
|--10p0--5--12p0--7--10p0--3--9p0--7--9p5p3p4--7p0--5--9p0--4--7p0--5--9p0--5--7p5p4p0-----|
|----------------------------------------------------------------------------------------6-|
|------------------------------------------------------------------------------------------|
|------------------------------------------------------------------------------------------|
|------------------------------------------------------------------------------------------|





                                   st              
|----------------------------------------------------------11--14--11----------------------|   
|------------------------12b[14]--[14]r12p10---12------12--------------12------10----------|
|-----6--8--9---9-9--------------------------------11----------------------11------11--8---|
|-/9---------------------------------------------------------------------------------------|
|------------------------------------------------------------------------------------------|
|------------------------------------------------------------------------------------------|


 |-----P.M.---|
                                                                                           ---
|------------------------------------------------------------------------------------------|     \
|---------------5--4-----------------------------------------------------------------------|point1
|----------------------6--4--------------4---6------------------/8--6----------------------|
|---------4-------------------------4-----------------------6---------6--------------------|
|-----6--------------------------6---------------------6--7---------------7----------------|
|--7-----------------------------------------------/9--------------------------------------|


 |---P.M.-----|

|------------------------------------------------------------------------------------------|
|----------------/9--7--6--7--[9]/10--X--X--12b[14]--[14]r12p10---12-----12-12-------------|
|------------6-----------------------------------------------------------------------------|
|-----6--7---------------------------------------------------------------------------------|
|--9---------------------------------------------------------------------------------------|
|------------------------------------------------------------------------------------------|



                                                                                 tr
|-12----------------------------------------------------------------------------------------|
|-----12--10--9-------------10--9-----------------------------------------------------------|
|------------------11--9------------11--9-----------------------11b[13]r11---9--8-----------|
|-------------------------------------------12--11--9------9---------------------\/---9-----|
|----------------------------------------------------------------------------------------10\|
|-------------------------------------------------------------------------------------------|


 |-----------------P.M.----------------|
                                                                          st
|-------------------------------------------------------------------------------------------|
|-------------------------------------------------------12-------12b[14]-[14]r12p10---------|
|------------------------------------9--11--13/14---14-------14-----------------------------|
|-------------------------9--11--13---------------------------------------------------------|
|--------------9--11--12--------------------------------------------------------------------|
|--9--11--12--------------------------------------------------------------------------------|



            st
|-----------------------------12--10--9-----------------------------------------------------|
|--12b[14]-[14]r12p10---12----------------12--10--9-----------------------------------------|
|-----------------------------------------------------11--9---------------------------------|
|-------------------------------------------------------------13--11--9-------9-------------|
|-------------------------------------------------------------------------12-----12--11--11\|
|-------------------------------------------------------------------------------------------|






|----------------------------------------------------------------x---16b[18]r16--14---------|
|-----------------------------------------------------------12---x--------------------------|
|----------------------------------9--11b[13]r11--9--8/[9]----------------------------------|
|-----------------------9--11--13-----------------------------------------------------------|
|------------9--11--12----------------------------------------------------------------------|
|-9--11--12---------------------------------------------------------------------------------|





|--16--14--12--------------------------------------------------------------------------------|
|--------------16--14--12--------------------------------------------------------------------|
|--------------------------14--13--14--13--11-------------------------13--14--16-------------|
|-----------------------------------------------14--13\---13--14--16-------------------------|
|--------------------------------------------------------------------------------------------|
|--------------------------------------------------------------------------------------------|





|-----------------------------------------14--16--17---17b[19]r17---16--14--16----16--14--12--|
|----------------------------14--16--17---------------------------------------\/--------------|
|---------------13--16--18--------------------------------------------------------------------|
|--13--16--18---------------------------------------------------------------------------------|
|---------------------------------------------------------------------------------------------|
|---------------------------------------------------------------------------------------------|






|--11----12--------------------------------12--15b[17]r15--14--12--14--------------------------|
|----\/--------14---16--17--14--16--17/19------------------------------15----------------------|
|----------------\/----------------------------------------------------------------------------|
|----------------------------------------------------------------------------12--11--10--9-----|
|----------------------------------------------------------------------------------------------|
|----------------------------------------------------------------------------------------------|



Now repeat from Point 1 until the end....


   T     T   T    T   T    T  T    T  T        T    T  T    T  T    T  T    T                
|------------------------------------------------------------------------------------------|  
|--10p0--5--12p0--7--10p0--3--9p0--7--9p5p3p4--7p0--5--9p0--4--7p0--5--9p0--5--7p5p4p0-----|   
|----------------------------------------------------------------------------------------6-|
|------------------------------------------------------------------------------------------|
|------------------------------------------------------------------------------------------|
|------------------------------------------------------------------------------------------|



                                   st              T      T   T      T   T
|------------------------------------------------------------------------------------------|
|------------------------12b[14]--[14]r12p10---12--22p12--14--21p12--14--19p14p12----------|
|-----6--8--9---9-9------------------------------------------------------------------------|
|-/9---------------------------------------------------------------------------------------|
|------------------------------------------------------------------------------------------|
|------------------------------------------------------------------------------------------|





   T     T   T    T   T    T  T    T  T        T    T  T    T  T    T  T    T
|------------------------------------------------------------------------------------------|
|--10p0--5--12p0--7--10p0--3--9p0--7--9p5p3p4--7p0--5--9p0--4--7p0--5--9p0--5--7p5p4p0-----|
|----------------------------------------------------------------------------------------6-|
|------------------------------------------------------------------------------------------|
|------------------------------------------------------------------------------------------|
|------------------------------------------------------------------------------------------|




|----------------------------------------------------11------------------------------------|
|----------------------12b[14]--[14]r12p10--12-----------14--12--11------------------------|
|----6--8--9---9-9-------------------------------11-------------------13--11---------------|
|/9---------------------------------------------------------------------------9------------|
|------------------------------------------------------------------------------------------|
|------------------------------------------------------------------------------------------|



Legend

st=strike
P.M.=palm mute
T=tappie
\/=this symbol under notes means that the wammy bar is used....tr means the same(tremolo)
b=bend
r=release
\=slide down
/=slide up
x=rake note



Tap to rate this tab
# A B C D E F G H I J K L M N O P Q R S T U V W X Y Z