Song name
# A B C D E F G H I J K L M N O P Q R S T U V W X Y Z

Marcera - White Coats tab

Ok, You friggin guitar heads. I think that this is probably one of the most interesingly
structured songs. Now, I don't Tab bass but if that was also included in this tab as well
you would agree. I will give you both guitars though. I figure that's good enough for me. 

OK...

Marcera
"White Coats"

tabed by The man with the axe.
D
A
D    Drop "D" tuning
G
B
E

 Intro riff

 as you can plainly tell the        Into riff 2     
notes are swells.                          
/-------------------------/   I'm not gonna siplify this part more than this
/-------------------------/     /-------------------------/
/-------------------------/     /---4-0-4--11-12-11-------/
/----4------7------3------/          
/----4------7------3------/     /-------------------------/
/----4------7------3------/     /---5-0-5--12-15-12-------/
    < >    < >    < >


Riff 1

/--------------------- /
/---------------------0/
/--------------------- /
/--7------9------7---- /
/--4------7------3----0/
/--4------7------3---- /
  16x    7x     7x


  verse riff
/--------------------------------------- /
/---------------------------------------0/
/--------------------------------------- /     
/--4444-444-444-444--7777-777--333-333-- /
/--4444-444-444-444--7777-777--333-333--0/         fill (on 4)
/--4444-444-444-444--7777-777--333-333-- /       /-------------/
                                                 /-------------/
/--------------------------------------- /       /-------------/
/---------------------------------------0/       /--------5*---/
/--------------------------------------- /       /-----5*------/
/--7777-777-777-777--9999-999--777-777-- /       /--5*---------/ 
/--4444-444-444-444--7777-777--333-333--0/
/--------------------------------------- /

   Riff 2
/-------------------------------------------------------------------------
/-------------------------------------------------------------------------
/-------------------------------------------------------------------------
/----------------------------------------------------------------------5*-
/---9999-9999-10101010-10101010-12-12-12-12-12-12-12-12-10-10-10-10---5*--
/---7777-7777-8-8-8-8--8-8-8-8--10-10-10-10-10-10-10-10-10-10-10-10--5*---

/------------------------------------------------- /
/-------------------------------------------------0/
/------------------------------------------------- /
/-------------------------5555-5555-5555------5*-- /
/--9999-99-10-9-5555-5555-5555-5555-7777----5*----0/
/--7777-77--8-7-3333-3333-5555-5555-5555--5*------ /

     Guitar 1                   Guitar 2 play this a total of 4x
/----------------/             /---------------------------------/
/----------------/             /-------4-5-4-------4-5-4---------/
/----------------/             /-4-0-4-------4-0-4-------4-0-4-0-/
/---4--5--4--0---/             
/---4--5--4--0---/             /-------5-7-5-------5-7-5---------/
/---4--5--4--0---/             /-5-0-5-------5-0-5-------5-0-5-0-/
   < >< >< >< |

   guitar 1
/----------------------------------------------------------------- /
/-----------------------------------------------------------------0/
/--7-6---7-6---7-6---7-6---7-6-----7-6---7-6---7-6---7-6---7-6---- /
/------4-----4-----4-----4-----4-5-----5-----5-----5-----5-----5-- /
/-----------------------------------------------------------------0/
/----------------------------------------------------------------- /

  chorus 
 (Riff 1)

  verse riff 
(without repeats)

  Riff 2

 

 (Riff 3) These padded walls!
/----------------------------------------------------------------- /
/------------------------------------------------------------10\--0/
/------------------------------------------------------------10\-- /
/------------------------4------------7--------------------------- /2x
/--0000-1111--555555-44444--888888-7777--10-10-10-10-10--8888-----0/
/--0000-1111--555555-44444--888888-7777--10-10-10-10-10--8888----- /


riff 4)everybody play and make the music sound miraculous.

/-----------------------------------/
/-----------------------------------/
/-----------------------------------/
/-----------4-5-4-------4-5-4-------/
/-------4-5-------5-4-5-------5-4-5-/
/--4-5------------------------------/

/------------------------------------- /
/-------------------------------------0/
/------------------------------------- /
/-----------5-6-5-------5-6-----5-6--- /
/-------5-6-------6-5-6-----5-6-------0/
/---5-6------------------------------- /


/------------------------------------------/
/-----------------9-10-9-------------------/
/----------8-7-8---------8-7-8-------------/
/--6-5-6----------------------6-5-6-5------/
/------------------------------------------/
/------------------------------------------/

/-------------------------------------------- /
/-----------------10-11-10-------------------0/
/----------9-8-9-----------9-8-9------------- /
/---7-6-7------------------------7-6-7-6----- /
/--------------------------------------------0/
/-------------------------------------------- /


  chorus
 (riff 1)

  outro
 intro riff

and that is it I know it's wierd and seems incomplete but it's not. Just listen to the
song and you'll understand.
Tap to rate this tab
# A B C D E F G H I J K L M N O P Q R S T U V W X Y Z