Song name
# A B C D E F G H I J K L M N O P Q R S T U V W X Y Z

Marco Antonio Solis - Si No Te Hubieras Ido tab

e|------------------------------------------------------|
b|---------------1-------------------1--0---------------|
g|---------0--2-----2----------------------2--0---------|
D|------2----------------------------------------2------|
A|------------------------------------------------------|
E|------------------------------------------------------|

e|------------------------------------------------------|
b|---------------1-------------------1--0---------------|
g|---------0--2-----2----------------------2--0---------|
D|------2----------------------------------------2------|
A|------------------------------------------------------|
E|------------------------------------------------------|

e|-------------------------|
b|---------------1---------|
g|---------0--2-----2------|
D|------2------------------|
A|-------------------------|
E|-------------------------|

Tap to rate this tab
# A B C D E F G H I J K L M N O P Q R S T U V W X Y Z