Song name
# A B C D E F G H I J K L M N O P Q R S T U V W X Y Z

Marco Arajo - Nervous System tab

Title: Nervous System
Artist: Marco Ara˙jo
Album: Nervous System
Words: Marco Ara˙jo
Music: Marco Ara˙jo
Copyright: Marco Ara˙jo
Tabber: Marco Ara˙jo
Tempo = 100
Marco Ara˙jo

Legend L - tied note   x - dead note    h - hammer on/pull off   b - bend
s - slide  ~ - vibrato g - ghost note   > - accentuated note     t - trill
M - palm mute . - staccato  P - popping (bass)  S - slapping (bass)         + - tapping  
  W - wide vibrato  < - fade in   w - whammy bar
= - tremolo picking   v - brush up   - brush down  V - pick stroke up
n - pick stroke down
      <  W       W
E |-------|----------|-------|----------------------------|
B |-------|--20L20L--|--20---|--------------12~---17h-----|
G |-------|----------|-------|--9--------9----------------|
D |-------|----------|-------|--------7-------------------|
A |-------|----------|-------|----------------------------|
E |-------|----------|-------|----------------------------|


----------------------------|----------------------------|
--8-----------8~----15h-----|--5-------------------------|
----------------------------|--------4-------------------|
-----------9----------------|-----------5----------------|
--------10------------------|--------------7~------------|
----------------------------|----------------------------|


----------------------------|----------------------------|
-----------8h----12h8-------|--------------12~---17h-----|
--------7-------------------|--9--------9----------------|
-----9----------------------|--------7-------------------|
--10------------------------|----------------------------|
----------------------------|----------------------------|


----------------------------|----------------------------|
--8-----------8~----15h-----|--5-------------------------|
----------------------------|--------4-------------------|
-----------9----------------|-----------5----------------|
--------10------------------|--------------7~------------|
----------------------------|----------------------------|


----------------------------|----------------------------|
-----------8h----12h8-------|--------------12~---17h-----|
--------7-------------------|--9--------9----------------|
-----9----------------------|--------7-------------------|
--10------------------------|----------------------------|
----------------------------|----------------------------|


----------------------------|----------------------------|
--8-----------8~----15h-----|--5-------------------------|
----------------------------|--------4-------------------|
-----------9----------------|-----------5----------------|
--------10------------------|--------------7~------------|
----------------------------|----------------------------|


----------------------------|----------------------------|
-----------8h----12h8-------|--------------12~---17h-----|
--------7-------------------|--9--------9----------------|
-----9----------------------|--------7-------------------|
--10------------------------|----------------------------|
----------------------------|----------------------------|


----------------------------|----------------------------|
--8-----------8~----15h-----|--5-------------------------|
----------------------------|--------4-------------------|
-----------9----------------|-----------5----------------|
--------10------------------|--------------7~------------|
----------------------------|----------------------------|


----------------------------|----------------------------|
-----------8L----------8----|--17~---------------20------|
--------7-------------------|-----------16---------------|
-----9----------------------|--------------17~-----------|
--10------------------------|----------------------------|
----------------------------|----------------------------|
Tap to rate this tab
# A B C D E F G H I J K L M N O P Q R S T U V W X Y Z