Song name
# A B C D E F G H I J K L M N O P Q R S T U V W X Y Z

Marco Araujo - Torn No Leaf Notebook tab

Title: Torn No Leaf Notebook
Artist: Marco Araujo
Album: Graffitti
Words: Marco Araujo
Music: Marco Araujo
Copyright: Marco Araujo
Tabber: Marco Araujo
Tempo = 135
Guitar Solo 3rd part 



--------------------12h7h-8--------------------------------|
-----------12h7h-8-----------12h7h-8-----------12h---------|
--12h7h-9-----------------------------12h7h-9--------------|
-----------------------------------------------------------|
-----------------------------------------------------------|
-----------------------------------------------------------|


------------------------------------------------------12h5h-7----|
--8h-10----------12h7h-8L-8-----12h5h-7--------------------------|
--------12h7h-9--------------------------------------------------|
-----------------------------------------------------------------|
-----------------------------------------------------------------|
-----------------------------------------------------------------|


--------------12h7h-8----------------------------------------------|
--12h7h-8-------------12h7h-8-----------12h8h-10-------------------|
---------------------------------------12h7h-9--------------12h----|
-------------------------------------------------------------------|
-------------------------------------------------------------------|
-------------------------------------------------------------------|


-----------------------------------|-------|
--------12h7h-8--12h10-12h5L-------|--5----|
--7h-9-----------------------------|-------|
-----------------------------------|-------|
-----------------------------------|-------|
-----------------------------------|-------|
Tap to rate this tab
 
# A B C D E F G H I J K L M N O P Q R S T U V W X Y Z