Song name
# A B C D E F G H I J K L M N O P Q R S T U V W X Y Z

Marco Borsato - Samen Voor Altijd tab

Samen Voor Altijds - Marco Borsato (met Jada Borsato)

Chords
        F       C       G       Am
---|----1-------0-------3-------0-------|
---|----1-------1-------3-------2-------|
---|----2-------0-------0-------2-------|
---|----3-------2-------0-------0-------|
---|----0-------3-------2-------0-------|
---|----0-------0-------3-------0-------|


Capo 5

Intro

---|---3---------3------|----------3-----------|---3--------3---------|-5----5---3--------------|
0-1|------0-1-------0-1-|-----0-1-----------0-1|-------0-1--------0-1-|-------------3-----------|
---|--------------------|-2--------------------|----------------------|-------------------------|
---|--------------------|----------------------|----------------------|-------------------------|
---|--------------------|----------------------|----------------------|-------------------------|
---|--------------------|----------------------|----------------------|-------------------------|


 F                      C                       
 dezelfde ogen, zelfde mond de zelfde lach
 G                              Am
 we gaan steeds meer op elkaar lijken, elke dag
 F                           C
 ik ben zo trots dat ik zo dicht bij jou mag zijn
 G
 ik hou van jou

 ik ken je al vanaf zolang dat je bestaat
 ik draag je bij me maakt niet uit waar ik ook ga
 ik zou niet weten hoe het zonder jou zou zijn
 ik hou van jou

             F          
 ik hoor bij jou
               C
 jij hoort bij mij
              G              Am
 we blijven samen voor altijd
                     F
 ik laat je nooit alleen
              C
 je maakt me blij
            G
 ik hou je vast
            Am
 en laat je vrij
           F                             C
 en ik vertrouw erop dat jij de weg wel weet
         G                              Am
 maar stiekem kijk ik toch een beetje mee
              F
 ik hoor bij jou
                C
 jij hoort bij mij
                G
 want jij bent ik
            Am
 en ik ben jij
                    F
 en dat is voor altijd


---|---3---------3------|----------3-----------|---3--------3---------|-5----5---3--------------|
0-1|------0-1-------0-1-|-----0-1-----------0-1|-------0-1--------0-1-|-------------3-----------|
---|--------------------|-2--------------------|----------------------|-------------------------|
---|--------------------|----------------------|----------------------|-------------------------|
---|--------------------|----------------------|----------------------|-------------------------|
---|--------------------|----------------------|----------------------|-------------------------|


 het leven gaat toch veel te snel aan ons voorbij
 maar wat een hoop mooie momenten delen wij
 als ik je nodig hebt dan ben je er voor mij
 ik hou van jou

 ik hoor bij jou
 jij hoort bij mij
 we blijven samen voor altijd
 ik laat je nooit alleen
 je maakt me blij
 ik hou je vast
 en laat je vrij
 en ik vertrouw erop dat jij de weg wel weet
 maar stiekem kijk ik toch een beetje mee
 ik hoor bij jou
 jij hoort bij mij
 want jij bent ik
 en ik ben jij
 en dat is voor altijd

 samen voor altijd

Getabt door Kim Van Moesieke.
Tap to rate this tab
# A B C D E F G H I J K L M N O P Q R S T U V W X Y Z