Song name
# A B C D E F G H I J K L M N O P Q R S T U V W X Y Z

Marco Borsato - Als Er Nooit Meer Een Morgen Zal Zijn tab

Help us improve GuitareTab! Take a short survey!
e|--3--5--7--8--7--5--3--2--3-------0--2--3--5--3--2--0----------------------|
B|---------------------------------------------------------3--5--------------|
G|---------------------------------------------------------------------------|
D|---------------------------------------------------------------------------|
A|---------------------------------------------------------------------------|
E|---------------------------------------------------------------------------|

e|--3--5--7--8--7--5--3--2--3--5---10-10------0--2--3--5--3--2--0-----------|
B|-----------------------------------------------------------------3--5-----|
G|--------------------------------------------------------------------------|
D|--------------------------------------------------------------------------|
A|--------------------------------------------------------------------------|
E|--------------------------------------------------------------------------|
Related for Als Er Nooit Meer Een Morgen Zal Zijn tab