Song name
# A B C D E F G H I J K L M N O P Q R S T U V W X Y Z

Marco Borsato - Engel Van Mijn Hart tab

Highlighted       Show chord diagrams
       D    Dadd11+
Oh ik droom ervan
       C#m7    C#m7/5+
om een leven lang
    D          Dadd11+  C#m7         C#m7/5+
M'n liefde aan m'n liefde te bewijzen

        Bm7             C#m
Naar de top of door het dal

Het maakt niet uit
      D          E
waar of je bent
                  D            E
Je niemand om je heen herkent
           D          E    Bm7
Ik ben bij je Ieder ogenblik
                D     E   A
De engel van je hart ben ik

Oh je hoort bij mij
en ik bij jou

Er is niemand die dat nu nog kan ontkennen
in't licht of door de nacht
Het maakt niet uit waar of ik ben
Ik niemand om me heen herken
Jij bent altijd zo dichtbij
De engel van mijn hart ben jij


    Oooh ik droom ervan...
E---2------4---4----5-----|
B---3------3---5----5-----|
G--------------4----4-----|
D---0------0--------------|
A--------------4----4-----|
E-------------------------|


E---2----4----4----5----|
B---3----3----5----5----|
G-------------4----4----|
D---0----0--------------|
A-------------4----4----|
E-----------------------|


    naar de top,...... of door 't dal....
E------------5------|-----------4-------|
B---------3--2------|-----------5-------|
G---------2---------|--------4----------|
D------4------------|-----6-------------|
A---2--------2------|--4----------------|
E-------------------|-------------------|

    't maakt niet uit...
E--------------------------------------------------------------------|
B---------7----------9/10--------7----------9/10--------7------------|
G---------7----------9-----------7----------9-----------7------------|
D------7----------9-----------7----------9-----------7----------9----|
A---5----------7-----------5----------7-----------5----------7-------|
E--------------------------------------------------------------------|


E------------------7-----|
B---9--------------7-----|
G---9--------------7-----|
D------9--------7--7-----|
A------------9-----9-----|
E---------7--------7-----|


    de engel van je hart ben ik                                  2x
E--------------------------------5----------------------------||-----|
B---------7-------------9-----------5-------------------------||-----|
G---------7-------------9--------------6---------------------*||-----|
D------7-----7-------9-----9--------------------5--9--7------*||-----|
A---5-------------7-----------------------5--7----------------||-----|
E-----------------------------5-------------------------------||-----|


grts da kaak
Tap to rate this tab
# A B C D E F G H I J K L M N O P Q R S T U V W X Y Z