Song name
# A B C D E F G H I J K L M N O P Q R S T U V W X Y Z

Marcos Hernandez - Way I Do tab

Song: The Way I Do
Artist: Marcos Hernandez
Capo: 2 fret
Tuning: Standard
Tabbed By: Roi Jason Lagunzaad

I can't find any other tab for this song, so i created one. It's not
perfect, but it sounds good. Anyway, this is my first tab. Soooo, i hope you'll like it. :)

PS. Hey you. yea you. :D Sana makita mo ito. And sana marunong ka na mag basa ng tab,
tinuruan na kita dati diba? :D I miss you. :((:
Add me: https://facebook.com/kamekazekrieg10
========================================================================

Intro:

     C                G                Am               F
e|----------------------------------------------------------------------|
B|-----------5---------------------------------1-----------------^------|
G|---5---5-----5------4-------4-5-4-5--2---2-----2------0-----0-0-2-----|
D|---5-5---5-----5----5---5------------2-2---2-----2----3---3-----------|
A|---3-------------3--5-5---5----------0-------------0--3-3-------------|
E|--------------------3---------------------------------1---------------|

Verse 1:

     C               G                Am               F      Repeat 2x
e|----------------------------------------------------------------------|
B|---------5--------------------------------1---------------------------|
G|-------5-----------------4--------------2------------------2----------|
D|-----5-----------------5--------------2------------------3------------|
A|---3-----------------5--------------0------------------3--------------|
E|-------------------3---------------------------------1----------------|
Your kiss, your smile, your mind
You're sunlight in my eyes
I miss your breath on my neck
When we whisper in the night

Prechorus:

     C                G                Am               F
e|----------------------------------------------------------------------|
B|-----------5---------------------------------1----------------^-------|
G|-------5-----5--------------4-5-4-5------2-----2------------0-02------|
D|-----5---5-----5--------5--------------2---2-----2--------3-----------|
A|---3-------------3----5---5----------0-------------0----3-------------|
E|--------------------3---------------------------------1---------------|
Didn't wanna want you
Didn't wanna need you so bad
Didn't wanna wake up
And find that I was falling so fast

     C                G                Am               F
e|----------------------------------------------------------------------|
B|-----------5---------------------------------1------------------------|
G|-------5-----5--------------4-5-7-5------2-----2------------0---------|
D|-----5---5-----5--------5--------------2---2-----2--------3-----------|
A|---3-------------3----5---5----------0-------------0----3-------------|
E|--------------------3---------------------------------1---------------|
Didn't wanna need you
Didn't wanna need anyone
Now look what you've done


Chorus: (Strum pattern - Down, (Palm Mute)Down, (Palm Mute)Down, Down)

C                      G
Now I can't go on without you
Am            F
I'm naked, I cant fake it.
C                 G
I'm not that strong without you
Am                                        F
Never thought I could love you the way I do.


Repeat Intro:

     C                G                Am               F
e|----------------------------------------------------------------------|
B|-----------5---------------------------------1-----------------^------|
G|---5---5-----5------4-------4-5-4-5--2---2-----2------0-----0-0-2-----|
D|---5-5---5-----5----5---5------------2-2---2-----2----3---3-----------|
A|---3-------------3--5-5---5----------0-------------0--3-3-------------|
E|--------------------3---------------------------------1---------------|


Verse2:

     C               G                Am               F      Repeat 2x
e|----------------------------------------------------------------------|
B|---------5--------------------------------1---------------------------|
G|-------5-----------------4--------------2------------------2----------|
D|-----5-----------------5--------------2------------------3------------|
A|---3-----------------5--------------0------------------3--------------|
E|-------------------3---------------------------------1----------------|
Your touch, your skin,
can't believe the way you let me in
Don't rush tonight,
I need you like the ocean needs the tide.

Prechorus2:

     C                G                Am               F
e|----------------------------------------------------------------------|
B|-----------5---------------------------------1----------------^-------|
G|-------5-----5--------------4-5-4-5------2-----2------------0-02------|
D|-----5---5-----5--------5--------------2---2-----2--------3-----------|
A|---3-------------3----5---5----------0-------------0----3-------------|
E|--------------------3---------------------------------1---------------|
Didn't wanna want you
Didn't wanna need you so bad
Didn't wanna wake up
And find that I was falling so fast

     C                G                Am               F
e|----------------------------------------------------------------------|
B|-----------5---------------------------------1------------------------|
G|-------5-----5--------------4-5-7-5------2-----2------------0---------|
D|-----5---5-----5--------5--------------2---2-----2--------3-----------|
A|---3-------------3----5---5----------0-------------0----3-------------|
E|--------------------3---------------------------------1---------------|
Didn't wanna need you
Didn't wanna need anyone
Now look what you've done


Repeat Chorus:(Strum pattern - Down, (Palm Mute)Down, (Palm Mute)Down, Down)

C                      G
Now I can't go on without you
Am            F
I'm naked, I cant fake it.
C                 G
I'm not that strong without you
Am                                        F
Never thought I could love you the way I do.

Bridge: (Strum)

Em                          Am
I always thought I would stand on my own
Em                   Am
Climb a mountain top all alone
   F       C          G
Relying, depending on no one
                            F
Now look at what you've done

(Repeat Chorus)

C
Never thought I could love you
G
Never thought I could need you
Am
Never thought I could want you
F
The way I do          (2x)

C
I love you
G
I need you
Am
I want you
  F
...the way I do
(x2)

C
Tap to rate this tab
# A B C D E F G H I J K L M N O P Q R S T U V W X Y Z