Song name
# A B C D E F G H I J K L M N O P Q R S T U V W X Y Z

Marcos Hernandez - Way You Do tab

Help us improve GuitareTab! Take a short survey!
The song is in standard tuning, this isn't ExACTLY what it is...its the main chords 
the rest is just some kind of picking here and there to spice it up. Hopefully this helps. 
is the first tab i've put here, hopefully it helps.

E------------------------------|
B-----6------------------------|
G--6-6-6-5-6--5-5-6-8-6--3--3--|
D--6----------6----------3--4--|
A--4----------6----------1--4--|
E-------------4-------------2--|


Or its like the same notes, but you could play...

E--------------|
B--------------|
G--------------|
D--11--6--8--4-|
A--11--6--8--4-|
E--9---4--6--2-|


I think the bridge part is just
" I always thought I would stand on my own..." just listen to the songs it should be 
to find the rhythm.
E---------------|
B---------------|
G---------------|
D--11--8--6--4--|
A--11--8--6--4--|
E--9---6--4--2--|

I know this isn't even CLOSE to perfect, but its the "majority" of how the song 
I'm hearing right.
Related for Way You Do tab