Song name
# A B C D E F G H I J K L M N O P Q R S T U V W X Y Z

Marcos Witt - Poema De Salvacion tab

E|-------3----3------1-0--------------------------------------------------|
B|--------------------------3--3--1-------3--3--1--0---3---1--1-----------|
G|------------------------------------0-----------------------------------|
D|------------------------------------------------------------------------|
A|------------------------------------------------------------------------|
E|------------------------------------------------------------------------|

E|-------3----3------1-0-------0------------------------------------------|
B|--------------------------3-----1--------3-3-3-3---1-0---3--2-2---------|
G|------------------------------------0H2---------------------------------|
D|------------------------------------------------------------------------|
A|------------------------------------------------------------------------|
E|------------------------------------------------------------------------|
Tap to rate this tab
# A B C D E F G H I J K L M N O P Q R S T U V W X Y Z