Song name
# A B C D E F G H I J K L M N O P Q R S T U V W X Y Z

Marcy Playground - Poppies tab

I've always wanted to teach myself this song. It didn't take long to figure it out and I 
I pretty much got it, it's much more simple to play then the previous submissions so 
-Toby

Band / Artist : Marcy Playground
Song : Poppies

Intro: e--------------------------|
       b--------------------------|
       g--------------------------|
       d--------------------------|
       a---11----12-11-----9------|
       e------0--------12------0--|


Bridge:e------------------------------|
       b------------------------------|
       g------------------------------|
       d--9--9--9-9-9-9-9-9-9-9-9-9---|
       a--7--7--7-7-7-7-7-7-7-7-7-7---|
       e--7--7--7-7-7-7-7-7-7-7-7-7---|


Verse: e------------------------|
       b------------------------|
       g------------------------|
       d--7--7--14-14--14-14-14-|
       a--7--7--14-14--14-14-14-|
       e--5--5--12-12--12-12-12-|


For help or just to contact me my Aim is: tI nI Down
Tap to rate this tab
# A B C D E F G H I J K L M N O P Q R S T U V W X Y Z