Song name
# A B C D E F G H I J K L M N O P Q R S T U V W X Y Z

Marcy Playground - Starbaby Acoustic tab

STARBABY (ACOUSTIC)  -MARCY PLAYGROUND

Tabbed: Errr68@gmail.com

I know its before the albums out but i dont think it matters. its a great song and heres 
acoustic tab so you'll be prepared for the album. Not sure if I can get in trouble for 
a tab for a song thats not out yet but o well.

p.s. dont sue me marcy playground

  E  E  E   F#  A  A
----------------------------------------|
----------------------------------------|
--1--1--1---4---2--2--------------------| X24
--2--2--2---4---2--2--------------------|
--2--2--2---2---------------------------|
----------------------------------------|


--------------------------------------|
-2---2----2-2-2----2------------------|
-2---2----2-2-2----2------------------|X2
--------------------------------------|
--------------------------------------|
--------------------------------------|

This next part you are just going to have to listen to the rhythm. its pretty simple.

-0------0------0------0----0-----0-----0----0---------------------------|
-0------0------0------0----0-----0-----0----0---------------------------|
-2------1------2------1----2-----1-----2----2-----------4---------------|
-2------2------2------2----2-----2-----2----2-----------4---------------|
-0------2------0------2----0-----2-----0----2-----------2---------------|
------------------------------------------------------------------------|
|let ring---------------------------------------------------------------|


Say what you will

You're my starbaby

And when you're coming down

When you're coming down come on down

When you're coming down

When you're coming down come on down

Star gazer, dream maker

I'm in love with you

Spin the bottle

And every time it's

Landing right on you


So say what you will

Inside baby

Oh when you're coming down

When you're coming down come on down

When you're coming down

When you're coming down come on down

I've been waiting

Waiting patiently every night

Just to see you

Just to see your perfect shining light


And my heart is like a photgraph

Album, of all the good times

And bad, I've had some

Well I miss this girl

And I miss that girl

I dont miss that girl

Sometimes I miss this girl


You, You're my starbaby

You're my starbaby

And when you're coming down

When you're coming down come on down
Tap to rate this tab
# A B C D E F G H I J K L M N O P Q R S T U V W X Y Z