Song name
# A B C D E F G H I J K L M N O P Q R S T U V W X Y Z

Marcy Playground - Good Times tab

Help us improve GuitareTab! Take a short survey!
-------------------------------------------------------------------------------
			     Good Times - John Wozniak
-------------------------------------------------------------------------------
Tabbed by:Marcy Fan :D
Email:omgderekrox@gmail.com

Now I know not too many people know this song. But its really great and not hard to learn!
the timing is very tricky so try hearing John Wozniak play the song so you can figure it out.

It's my first tab so bear with me. lol.

Remember.
Perform on acoustic.
Sing out loud.

Tuning:Normal

INTRO X1
e|---------------------------------------------------|
B|---------------------------------------------------|
G|--7--7---------------------------------------------|
D|--7--7--X---7-X-7-X-7-7----------------------------|
A|--5--5--X---7-X-7-X-7-7----------------------------|
E|--------X---5-X-5-X-5-5----------------------------|

	Other wise known as a Bm and Fmaj i think
e|------------------------------------------------------------------|
B|------------------------------------------------------------------|
G|--4--4------------------------------------------------------------|
D|--4--4---4-X-4-X-4-4-X---/---5-5---555--5-5---5555----------------|
A|--2--2---4-X-4-X-4-4-X---/---5-5---555--5-5---5555----------------|
E|---------2-X-2-X-2-2-X---/---3-3---333--3-3---3333----------------|
                                                UDUD
e|-----------------------------------------------------------------------------------|
B|-----------------------------------------------------------------------------------|
G|-----------------------------------------------------------------------------------|
D|--/-1010-\-9-----------------------------------------------------------------------|
A|--/-1010-\-9-----------------------------------------------------------------------|
E|--/-8-8--\-7-----------------------------------------------------------------------|
                                                                                               ∆
So it goes like this if it helps.

After Playing this up at top

Do Do doo...
e|------------------------------------|
B|------------------------------------|
G|--7--7------------------------------|
D|--7--7-----7-X-7-X-7-7--------------|
A|--5--5-----7-X-7-X-7-7--------------|
E|-----------5-X-5-X-5-5--------------|

Do Doo Doo Do Doo..
e|---------------------------------------------------------|
B|---------------------------------------------------------|
G|--4--4---------------------------------------------------|
D|--4--4---4-X-4-X-4-4-X-/---5-5---555--5-5---555----------|
A|--2--2---4-X-4-X-4-4-X-/---5-5---555--5-5---555----------|
E|---------2-X-2-X-2-2-X-/---3-3---333--3-3---333----------|

When life is going down....
e|---------------------------------|
B|---------------------------------|
G|--7--7---------------------------|
D|--7--7-----7-X-7-X-7-7-----------|
A|--5--5-----7-X-7-X-7-7-----------|
E|-----------5-X-5-X-5-5-----------|

And everything about it feels so blue....
e|---------------------------------------------------|
B|---------------------------------------------------|
G|--4--4---------------------------------------------|
D|--4--4---4-X-4-X-4-4-X---/-5-5-555--55---555-------|
A|--2--2---4-X-4-X-4-4-X---/-5-5-555--55---555-------|
E|---------2-X-2-X-2-2-X---/-3-3-333--33---333-------|

As for the chorus. It's pretty much the same.
but a bit of a cut out of each.
Try your own thing. Just makes sure it keeps in tune with your singing and the rythm of the song.
GOOD LUCK!!

GO MARCY!

| /  slide up
| \  slide down
| h  hammer-on
| p  pull-off
| ~  vibrato
| +  harmonic
| x  Mute note
===============================================================================
Related for Good Times tab