Song name
# A B C D E F G H I J K L M N O P Q R S T U V W X Y Z

Marcy Playground - Closing Time tab

Listen to the song to figure out how to play it. But here is the chords:

Intro/vers/chorus

This is the way that I think sounds best
e|------------------------------------------------------------|
H|------------------------------------------------------------|
G|------7-7-------5-5-----------------------------------------|
D|-5-5--7-7--7-7--5-5-----------------------------------------|
A|-5-5--5-5--7-7--3-3-----------------------------------------|
E|-3-3-------5-5----------------------------------------------|

                              OR
Intro/vers/chorus

I think this is the way they actually play it
e|------------------------------------------------------------|
H|------------------------------------------------------------|
G|------7-7-------5-5-----------------------------------------|
D|-5-5--7-7--7-7--5-5-----------------------------------------|
A|-5-5-------7-7----------------------------------------------|
E|-3-3--5-5--5-5--3-3-----------------------------------------|

Bridge

e|------------------------------------------------------------|
H|------------------------------------------------------------|
G|------------------------------------------------------------|
D|---8-8-8-8-8-8-8--------------------------------------------|
A|---8-8-8-8-8-8-8--------------------------------------------|
E|---6-6-6-6-6-6-6--------------------------------------------|

Solo

Thats it!. The solo is just repeated a couple of times
e|------------------------------------------------------------|
H|------------------------------------------------------------|
G|--5--7--9--12----9--11--12--16------------------------------|
D|------------------------------------------------------------|
A|--3--5--7--10----7--9---10--14------------------------------|
E|------------------------------------------------------------|

Really easy song to play

hope you enjoyed it.

/Steffen Christensen
Tap to rate this tab
# A B C D E F G H I J K L M N O P Q R S T U V W X Y Z