Song name
# A B C D E F G H I J K L M N O P Q R S T U V W X Y Z

Marcy Playground - Dog And His Master tab

this is the tab for the
electric guitar with some
distortion

do this through the verse and end of the chorus

e|----------------------------|
B|----------------------------|
G|----------------------------|
D|----------------------------|
A|------------0-2h3p2h3p2h3p2~|
E|3~~~~~~~~~~~----------------|


chorus
e|-------------|
B|-------------|
G|-------------|
D|----0-----4--|
A|------2-2----|
E|3-3----------|

in the bridge with the chords do this

e|-------|
B|-------|
G|1s7----|
D|1s7----|
A|-------|
E|-------|

can someone figure out the solo for shadow of seattle?
Tap to rate this tab
# A B C D E F G H I J K L M N O P Q R S T U V W X Y Z