Marcy Playground - Sex And Candy tab

Standard Tuning (EADGBe)

Intro/Verse
|----------------------------------------|
|----------------------------------------|
|----------------------------------------|
|----9---9-9-9-9--9-9---5--5-5-5--4--4-4-|
|----9---9-9-9-9--9-9---5--5-5-5--4--4-4-|   x4
|----7---7-7-7-7--7-7---3--3-3-3--2--2-2-|


Prechorus
|----|
|----|
|----|
|-4--|
|-4--|
|-2--|
...Disco superfly..

|---------------------------------------|
|---------------------------------------|
|--2h4-2-----------4-4------------------|
|--0---0--2h4-2p0--4-4---5-5---7-7------|
|------------------2-2---5-5---7-7------|  x3
|------------------------3-3---5-5------|
I smell sex and candy....

|-------------|
|-------------|
|-------------|
|-7-7--7-7--7-|
|-7-7--7-7--7-|
|-5-5--5-5--5-|
Mama this surely is a dream...


Main Chorus

|-------------------------------|
|-------------------------------|
|--7--7-7-----------------------|
|--7--7-7--7-7-7--9-9-9--5-5-5--|
|--5--5-5--7-7-7--9-9-9--5-5-5--|
|----------5-5-5--7-7-7--3-3-3--|

|-------------------|
|-------------------|
|-------------------|
|--4-4-4-4-4-4-4-4--|
|--4-4-4-4-4-4-4-4--|
|--2-2-2-2-2-2-2-2--|


Repeat Intro/Verse
Repeat Prechorus
Repeat Chorus
Repeat Prechorus
Repeat Chorus

Ends with
|-----|
|-----|
|--7--|
|--7--|
|--5--|
|-----|
Tap to rate this tab
 
# A B C D E F G H I J K L M N O P Q R S T U V W X Y Z