Song name
# A B C D E F G H I J K L M N O P Q R S T U V W X Y Z

Marcy Playground - St Joe On The School Bus tab

Tabbed by David Hofmann and Kfir Cohen
Questions/Comments/Corrections: jacks_smirkingrevenge@hotmail.com

Marcy Playground
St Joe on a Schoolbus

Rythym:
----------------------------------
----------------------------------
----------------------------------
-4-4-4-4/7-7-7-7\2-2-2-2-2-222/3--
-4-4-4-4/7-7-7-7\2-2-2-2-2-222/3--
-2-2-2-2/5-5-5-5\0-0-0-0-0-000/1--

Intro  F# A5 Em F (Play Twice)

  F#    A5	Em		F
St Joe he said hes never been
  F#	A5	Em	 F
Dressed up like a woman
  F#		A5	Em	 	F
St. Joe, they said your dad was gay
  F#	  A5	  Em	   F
They said your mom shes a whore
  F#	 A5 	   Em	           F
They said until you were Raw, yea
  F#	 A5	    Em	        F
They said your mom shes a bore
  F#	 A5	    Em	        F
And they made her beg them for more, yea
 
Chorus:
----------------------------------
----------------------------------
----------------------------------
----------------------------------
-----2-----2---2-----4-------7----
-0-0---0-0---0--/2-2---2/5-5---5--

End chorus with this
-------------------------------------
-------------------------------------
-------------------------------------
----------------------------------2--
------9-----9---9-----2-----2---2-2--
-/7-7---7-7---7---0-0---0-0---0---0

Aunt Mary, Aunt Mary, Aunt Mary says
They have the darkness in, in their minds

(Play Intro Twice)

Verse 2 (Same as Verse 1)

St. Joe, they say youve never been
Made up like a woman
St. Joe, The time is coming when
When Mary never will return
Yea, Mary never will come back Yea
Yea, Mary never will return
Oh Mary please come home

Chorus (Same as above)
(Play Chorus once after words are done alone)

Final Chorus (Same as above):

Aunt Mary, Aunt Mary, Aunt Mary says
They have the darkness in, 
They have the family disease
They have the darkness in, in their minds

That should be it
Tap to rate this tab
# A B C D E F G H I J K L M N O P Q R S T U V W X Y Z