Song name
# A B C D E F G H I J K L M N O P Q R S T U V W X Y Z

Marcy Playground - Vampires Of New York tab

  I noticed that the tabs on this site weren't quite right, but these tabs are. These 
are straight out of their official tab book. Enjoy.


            Come  see the vampires of New York.               Ha,
||--------|-------------------------------------0----------------|
||--------|--------1--1-1-------1--1-1-------1--1--------1--1-1--|
||--------|--------0--0-0-------0--0-0-------0--0--------0--0-0--|
||--------|--------2--2-2-------2--2-2-------2--2-2-0----2--2-2--|
||----0-2-|---3-3--3--3-3--3-3--3--3-3--3-3--3--3-3---3--3--3-3--|
||-3------|------------------------------------------------------|

  ha.
|--------3--3-3---------3--3-3---------3--3-3-------------------|
|--------3--3-3---------3--3-3---------3--3-3-------------------|
|--------0--0-0---------0--0-0---------0--0-0-------------------|
|--------0--0-0---------0--0-0---------0--0-0---------------0---|
|--------2--2-2---------2--2-2---------2--2-2---------0--2------|
|-3--3---3--------3--3--3--------3--3--3--------3--3------------|

 Come lose your mind in Central Park.           Ha,
|-----------------------------------0----------------|
|------1--1-1-------1--1-1-------1--1--------1--1-1--|
|------0--0-0-------0--0-0-------0--0--------0--0-0--|
|------2--2-2-------2--2-2-------2--2-2-0----2--2-2--|
|-3-3--3--3-3--3-3--3--3-3--3-3--3--3-3---3--3--3-3--|
|----------------------------------------------------|

 ha.                               But don't leave your soul be -
|--------3--3-3---------3--3-3---------3--3-3--------3--3-3----|
|--------3--3-3---------3--3-3---------3--3-3--------3--3-3----|
|--------0--0-0---------0--0-0---------0--0-0--------0--0-0----|
|--------0--0-0---------0--0-0---------0--0-0--------0--0-0----|
|--------2--2-2---------2--2-2---------2--2-2--------2--2-2----|
|-3--3---3--------3--3--3--------3--3--3-------3--3--3---------|

 hind._                            Ah._______________
|-----------------------------------0----------------|
|------1--1-1-------1--1-1-------1--1--------1--1-1--|
|------0--0-0-------0--0-0-------0--0--------0--0-0--|
|------2--2-2-------2--2-2-------2--2-2-0----2--2-2--|
|-3-3--3--3-3--3-3--3--3-3--3-3--3--3-3---3--3--3-3--|
|----------------------------------------------------|

 ___
|--------3--3-3---------3--3-3---------3--3-3------------------|
|--------3--3-3---------3--3-3---------3--3-3------------------|
|--------0--0-0---------0--0-0---------0--0-0------------------|
|--------0--0-0---------0--0-0---------0--0-0------------------|
|--------2--2-2---------2--2-2---------2--2-2---------0--2-----|
|-3--3---3--------3--3--3--------3--3--3--------3--3-----------|

 Come  take in 8th Street after dark.            Ha,
|-----------------------------------0----------------|
|------1--1-1-------1--1-1-------1--1--------1--1-1--|
|------0--0-0-------0--0-0-------0--0--------0--0-0--|
|------2--2-2-------2--2-2-------2--2-2-0----2--2-2--|
|-3-3--3--3-3--3-3--3--3-3--3-3--3--3-3---3--3--3-3--|
|----------------------------------------------------|

 ha.
|--------3--3-3---------3--3-3---------3--3-3-------------------|
|--------3--3-3---------3--3-3---------3--3-3-------------------|
|--------0--0-0---------0--0-0---------0--0-0-------------------|
|--------0--0-0---------0--0-0---------0--0-0---------------0---|
|--------2--2-2---------2--2-2---------2--2-2---------0--2------|
|-3--3---3--------3--3--3--------3--3--3--------3--3------------|

 "Such peculiar people," you'll remark.          Ha,
|-----------------------------------0----------------|
|------1--1-1-------1--1-1-------1--1--------1--1-1--|
|------0--0-0-------0--0-0-------0--0--------0--0-0--|
|------2--2-2-------2--2-2-------2--2-2-0----2--2-2--|
|-3-3--3--3-3--3-3--3--3-3--3-3--3--3-3---3--3--3-3--|
|----------------------------------------------------|

 ha.                                  You might even see a mur -
|--------3--3-3---------3--3-3---------3--3-3--------3--3-3----|
|--------3--3-3---------3--3-3---------3--3-3--------3--3-3----|
|--------0--0-0---------0--0-0---------0--0-0--------0--0-0----|
|--------0--0-0---------0--0-0---------0--0-0--------0--0-0----|
|--------2--2-2---------2--2-2---------2--2-2--------2--2-2----|
|-3--3---3--------3--3--3--------3--3--3-------3--3--3---------|

 der.                             Ah._________________
|-----------------------------------0----------------|
|------1--1-1-------1--1-1-------1--1--------1--1-1--|
|------0--0-0-------0--0-0-------0--0--------0--0-0--|
|------2--2-2-------2--2-2-------2--2-2-0----2--2-2--|
|-3-3--3--3-3--3-3--3--3-3--3-3--3--3-3---3--3--3-3--|
|----------------------------------------------------|

___                                                      And
|--------3--3-3---------3--3-3---------3--3-3---------3-------|
|--------3--3-3---------3--3-3---------3--3-3---------3-------|
|--------0--0-0---------0--0-0---------0--0-0---------0--0----|
|--------0--0-0---------0--0-0---------0--0-0---------0--0----|
|--------2--2-2---------2--2-2---------2--2-2---------2-------|
|-3--3---3--------3--3--3--------3--3--3--------3--3--3-------|

[Changes to chords here at the chorus.]

F                  G                     C
all the whores of Bleeker Street, they wear the blissful grin.

F                    G                C
  caused by the drugs they take to relieve them of their sins.    Oh.___

G                          C       Am
___     And, "Oh_________ Lord,        I think she's dy -

 G                        C        Am
ing,"   I heard somebody say,          "I think she's dy -

 G                        C        Am
ing.    And, oh,      oh Lord,          I think she's dy -

  ing."                                            Or
|---3-3-3-3----3-3-3-3----3-3-3-3--3-|----------------|
|---3-3-3-3----3-3-3-3----3-3-3-3--3-|----------------|
|---0-0-0-0----0-0-0-0----0-0-0-0--0-|----------------|
|---0-0-0-0----0-0-0-0----0-0-0-0--0-|----------------|
|----------------------------------2-|------0--2------|
|-3----------3----------3----------3-|--3-------------|

[Switches back to only chords again.]

 C (3fr)      C              C (3fr)       C       G (3fr)  G  G(3fr)  G
maybe she's already dead and maybe she's gone to Mars._

 C                                              G
(Con. rhy. simile)
Maybe we could even write her epitaph in the stars.            It's say,__

 C             G          C              G
"If you go away from here, if you go a million miles,__

 come     down      town           to see__      them
|-------------------|----3-3-3-3--3-3-3-|---------------------|
|-1--1-1-0-1--1-1-0-|----3-3-3-3--3-3-3-|-1--1-1-0-1--1-1-0---|
|-2--2-2-0-0--0-0-0-|----0-0-0-0--0-0-0-|-2--2-2-0-0--0-0-0---|
|-3--3-3-0-2--2-2-0-|----0-0-0-0--0-0-0-|-3--3-3-0-2--2-2-0---|
|-3--3-3---3--3-3---|----2-2-2-2--2-2-2-|-3--3-3---3--3-3-----|
|-1--1-1------------|-3--------3--------|-1--1-1--------------|

  go
|-----3--3--3--3----3--3--3-|-3----3--3--3-----|
|-----3--3--3--3----3--3--3-|-3----3--3--3-----|
|-----0--0--0--0----0--0--0-|-0----0--0--0-----|
|-----0--0--0--0----0--0--0-|-0----0--0--0-----|
|-----2--2--2--2----2--2--2-|-2----2--2--2-----|
|-3------------3------------|-3----------------|

    in - to the den  of  the vampires of New
|-3------------|--------------------------------|
|-3------------|-------1--1-1--------1--1-1-----|
|-0------------|-------0--0-0--------0--0-0-----|
|-0------------|-------2--2-2--------2--2-2-----|
|-2------0--2--|-3--3--3--3-3--3--3--3--3-3-----|
|-3---3--------|--------------------------------|

 York."                Ha,   ha.
|----------0----------------|-------3--3-3-------3--3-3--|
|-------1--1---------1--1-1-|-------3--3-3-------3--3-3--|
|-------0--0---------0--0-0-|-------0--0-0-------0--0-0--|
|-------2--2-2--0----2--2-2-|-------0--0-0-------0--0-0--|
|-3--3--3--3-3----3--3--3-3-|-------2--2-2-------2--2-2--|
|---------------------------|-3--3--3------3--3--3-------|

  But please watch your step as you're getting off, kids.
|-------3---3--3--------3--3-3-|-----------------------------||
|-------3---3--3--------3--3-3-|-----------------------------||
|-------0---0--0--------0--0-0-|-----------------------------||
|-------0---0--0--------0--0-0-|-2------0-2-0-2-0-2----------||
|-------2---2--2--------2--2-2-|-3---------------------------||
|-3--3--3---------3--3--3------|-----------------------------||
Tap to rate this tab
# A B C D E F G H I J K L M N O P Q R S T U V W X Y Z