Song name
# A B C D E F G H I J K L M N O P Q R S T U V W X Y Z

Marcy Playground - Gone Crazy tab

-------------------------------------------------------------------------------
			  Gone Crazy - Marcy Playground
-------------------------------------------------------------------------------
Tabbed by: 67SG

So sad they seem to have been forgotten...


Tuning: Standard

Intro:
e|-------------------|--------------------|--------------------|
B|--9---9---7---7/9--|--10---10---11\7-7--|--10---10---10\7-7--|
G|-------------------|--------------------|--------------------|
D|--9---9---7---7/9--|--11---11---11\7-7--|--11---11---11\7-7--|
A|-------------------|--------------------|--------------------|
E|-------------------|--------------------|--------------------|

e|----------------------|-------------|
B|--10\5-5--7--7/-9--9--|----3-/---5--|
G|----------------------|-------------|
D|--11\6-6--7--7/-9--9--|--4---/-6----|
A|----------------------|-------------|
E|----------------------|-------------|
This part is faster, so you may have to listen to it to get it right.
e|---------------|---------------|-------------------|--------------------|
B|-7/9--9--9--7--|--3-3/5-5-5-3--|--2-2/3-3-3-2-2-2--|--------------------|
G|-X----X--X--X--|--X-X/--X-X-X--|--X-X---X-X-2-X-2--|--------------------|
D|-7/9--9--9--7--|--4-4/6-6-6-4--|--2-2/4-4-4-2-0-2--|----6p0-------------|
A|---------------|---------------|-------------------|--7-------6p0----4-7|
E|---------------|---------------|-------------------|--------7------5----|

Verse:
  E? let ring ------   A       B
e|----------X-------|-------------------|
B|----------X---X---|-------------------|
G|------13--13--13--|--6-6-6-6-8-8-8-8--|
D|------X---X---X---|--7-7-7-7-9-9-9-9--|
A|------11--11------|--7-7-7-7-9-9-9-9--|
E|-0-0--------------|--5-5-5-5-7-7-7-7--|

Pre-Chorus

e|-------------|------------------|------------------|
B|-------------|------------------|------------------|
G|-6--4--2--1-/|--(6)-6--4--2--1-/|--(6)-6--4--4--1--|
D|-7--6--4--2-/|--(7)-7--6--4--2-/|--(7)-7--6--2--2--|
A|-------------|------------------|------------------|
E|-------------|------------------|------------------|

Chorus:
   let ring
e|---------------|---------------|-----------------|
B|-10------------|--5--7/--9--9--|----3-/-(5)---5--|
G|---------------|---------------|-----------------|
D|-11------------|--6--7/--9--9--|--4---/-(6)-6----|
A|---------------|---------------|-----------------|
E|---------------|---------------|-----------------|

e|---------------|---------------|-------------------|--------------------|
B|-7/9--9--9--7--|--3-3/5-5-5-3--|--2-2/3-3-3-2-2-2--|--------------------|
G|-X----X--X--X--|--X-X/--X-X-X--|--X-X---X-X-2-X-2--|--------------------|
D|-7/9--9--9--7--|--4-4/6-6-6-4--|--2-2/4-4-4-2-0-2--|----6p0-------------|
A|---------------|---------------|-------------------|--7-------6p0----4-7|
E|---------------|---------------|-------------------|--------7------5----|




| /  slide up
| \  slide down
| h  hammer-on
| p  pull-off
| ~  vibrato
| +  harmonic
| x  Mute note
===============================================================================

Tap to rate this tab
# A B C D E F G H I J K L M N O P Q R S T U V W X Y Z