Song name
# A B C D E F G H I J K L M N O P Q R S T U V W X Y Z

Marcy Playground - Black Eyed Sue tab

Artist: Marcy Playground
Album: Lunch, Recess & Detention
Song: Black Eyed Sue


Main Riff:
e------------------------|
B------------------------|
G------------------------|
D------------------------|
A------3-2---------------|
Eó0-0-----0-2-0-2-0-2b---|

Chorus:
           G             A
She said Don't you come home drunk again

Bridge:
e---------------------------------|
B---------------------------------|
G---------------------------------|
D---------------------------------|
A---------------5-3-2-------------|
Eó0-2-3-5-3-2-0-------5-3-2-3-2-3-|

e-----------------------------|
B-----------------------------|
G-----------------------------|
D-----------------------------|
A-----0-2-----5-3-2-0---------|
E-0-2-----5-3---------3-2-3-0-|

e---------------------------------|
B---------------------------------|
G---------------------------------|
D---------------------------------|
A---------------5-3-2-------------|
Eó0-2-3-5-3-2-0-------5-3-2-3-2-3-|

e-----------------------------|
B-----------------------------|
G-----------------------------|
D-----------------------------|
A-----0-2-----5-3-2-0---------|
E-0-2-----5-3---------3-2-3-0-|
Tap to rate this tab
 
# A B C D E F G H I J K L M N O P Q R S T U V W X Y Z