Song name
# A B C D E F G H I J K L M N O P Q R S T U V W X Y Z

Marcy Playground - Sex And Candy tab

Hey guys this is my first attempt to make a tab lol so dont hate too much.
here is basicly the main riff
e|---------------------------------|
B|---------------------------------|
G|---------------------------------|
D|----9----7-----------------------|
A|--------------9-----7/5----------|
E|---------------------------------|
here is the bar chords after that riff
e|---------------------------------------|
B|---------------------------------------|
G|---------------------------------------|
D|---------------------------------------|
A|--9--9----5--5---7-7-------------------|
E|--7--7----3--3---5-5-------------------|
after that it does the main riff again
e|---------------------------------|
B|---------------------------------|
G|---------------------------------|
D|----9----7-----------------------|
A|--------------9-----7/5----------|
E|---------------------------------|
then this again
e|---------------------------------------|
B|---------------------------------------|
G|---------------------------------------|
D|---------------------------------------|
A|--9--9----5--5---7-7-------------------|
E|--7--7----3--3---5-5-------------------|
then
e|---------------------------------|
B|---------------------------------|
G|---------------------------------|
D|----9----7-----------------------|
A|--------------9-----7/5----------|
E|---------------------------------|
then it finally goes
e|----------------------------------------------------------|
B|----------------------------------------------------------|
G|--------------------------7--7----------------------------|
D|--------------------------5--5----------------------------|
A|--9--9----5--5---7-7------------9--9----5--5---7-7-7------|
E|--7--7----3--3---5-5------------7--7----3--3---5-5-5------|

e|----------------------------------------------------------|
B|----------------------------------------------------------|
G|----------------------------------------------------------|
D|--7-7----------------------7-7----------------------------|
A|--5-5-----7-7---9-9---5-5--5-5-7-7---9-9---5-5------------|
E|----------5-5---7-7---3-3------5-5---7-7---3-3------------|
thats how it sounds to me
i dont know if its right...
Tap to rate this tab
 
# A B C D E F G H I J K L M N O P Q R S T U V W X Y Z