Song name
# A B C D E F G H I J K L M N O P Q R S T U V W X Y Z

Marcy Playground - Spoonfed tab

Artist: Marcy Playground
Song:  Spoonfed
Album: Mp3


Main Riff:
E-----------------------------------|
B----------------------0----0-----0-|
G-----1------21-----1----1----1-----|
D-2-2---2-22----2-2--------2----2---|
A-2-2---2-22----2-2-----------------|
E-0-0---0-00----0-0-----------------|

Verse 1:* (Most of the verse is the main riff with pauses)
*
Forces in my mind
*
Talking all the time
 B                            A
Don't let the home fires burn   away
*
Spoonfed mush and jam
*
Spoonfed peas and ham
     B          A              *
And all the medicine    they can

Chorus:
 B                      D
And I'm stuck in this place
                  A    E
I never wanted to be here
 B                         D
You gotta help me mom and dad
                  A   E
I never wanted to be here
 B                   D
They lock me in my room
                A E
They think I'm crazy
 B                         D
But if you had all these rules
              A E
You would be crazy too

Verse 2: * (Main Riff)
Forces in my mind
Talking all the time

(Durring verse 2 play it like this)
E-----------------------------------|
B----------------------0----0-----0-|
G-----1------21-----1----1----1-----|
D--------------------------2----2---|
A-----------------------------------|
E-0-0---0-00----0-0-----------------|

Chorus:
And I'm stuck in this place
I never wanted to be here
You gotta help me mom and dad
I never wanted to be here
They locked me in my room
They think I'm crazy...

Outro:
A  E
Crazy...
B  D A  E
     Crazy...
B, D A  E
     Crazy...
( B, D, A, E ) x  3
Tap to rate this tab
# A B C D E F G H I J K L M N O P Q R S T U V W X Y Z